Learn Singing, Guitar, Piano, Bass, Percussion at www.NEATcourses.com
Get Chords at www.NEATchords.com

dave barnes
until you
Chords and lyrics

difficulty: intermediate



-------------------------------------------------------------------------------

-------------------------------------------------------------------------------

Tuning: STANDARD (CAPO 1)

     D   Bm   G   Em7  A

e|---2----0---3----0---0-----------------------------------------------------|

B|---3----3---3----3---2-----------------------------------------------------|

G|---2----2---0----0---2-----------------------------------------------------|

D|---0----0---0----2---2-----------------------------------------------------|

A|--------2---2----2---0-----------------------------------------------------|

E|------------3----0---------------------------------------------------------|

D                         Bm

Let's just take our time

                         G   

There's nothing else to do

                  Em7    

What better way to spend the night

     A                D

Than wasting it with you

                     Bm

The moon has won the war

                       G

The daylight waits to win

                 Em7

Stay here by my side

                   A                Bm  A  G

We'll watch the struggle start again

D       A

I need you

             Bm

Now and forever

G                      D  A

To stay right here with me

            G

Don't ever leave

D         A

Love was kept

                 Bm

G                          D    A

And I swore that I was through

       G

Until you

Until you

The city's settled down

I watch you as you sleep

There's a silent celebration

For every breath you breathe

All this now makes sense

With you as company

I left all I knew and found

The better part of me

Yeah yeah

     A        D       G

The time it took to find you

         A      D       G

I would wait again, my baby

          A      D     G               A        

For the feelings that I feel with you now

Electric Part over chorus (Capo 1)

e|----------0-------------0--------------0-------------0-------|

B|------3-----3-------3-----3--------3-----3-------3-----3-----|

G|----2---2-----2---2---2-----2----2---2-----2---0---0-----0---|

D|--0----------------------------------------------------------|

A|----------------0--------------2-----------------------------|

E|---------------------------------------------3---------------|

e|----------0-------------0--------------0-------------0-------|

B|------3-----3-------3-----3--------3-----3-------3-----3-----|

G|----2---2-----2---2---2-----2----0---0-----0---0---0-----0---|

D|--0----------------------------------------------------------|

A|----------------0--------------------------------------------|

E|-------------------------------3-------------3---------------|

| /  slide up

| \  slide down

| B  hammer-on

| p  pull-off

| ~  vibrato

| +  harmonic

| x  Mute note

===============================================================================



simplify

key

chords

key

original:   current:  

transpose  


D

Bm

G

Em7

A

1

2

4

5

6

2

intermediate