Learn Singing, Guitar, Piano, Bass, Percussion at www.NEATcourses.com
Get Chords at www.NEATchords.com

dave stewart
lily was here bass
Chords and lyrics

difficulty: expert



G|-------|----------------------------|----------------------------|

D|-------|----------------------------|----------------------------|

A|-------|----------------------------|----------------------------|

E|-------|----------------------------|--------------------3-------|

B|-------|-----------------0--3-------|--5--5-----5-----5-----5----|

G|----------------------------|----------------------------|

D|----------------------------|----------------------------|

A|----------------------------|----------------------------|

E|----------------------------|--------------------3-------|

B|--3--5-----5-----5--3--5----|--5--5-----5-----5-----5----|

G|----------------------------|----------------------------|

D|----------------------------|----------------------------|

A|----------------------------|--2-------------------------|

E|----------------------------|--------------------3-------|

B|--3--5-----5-----5--3--5----|-----5-----5-----5-----5----|

G|----------------------------|----------------------------|

D|----------------------------|----------------------------|

A|----------------------------|----------------------------|

E|----------------------------|--3-----------------3-------|

B|--3--5-----5-----0--3--0----|-----5-----5-----5-----5----|

G|----------------------------|----------------------------|

D|----------------------------|----------------------------|

A|----------------------------|----------------------------|

E|----------------------------|--3-----------------3-------|

B|--3--5-----5-----5--3--5----|-----5-----5-----5-----5----|

G|----------------------------|----------------------------|

D|----------------------------|----------------------------|

A|-----------------------2----|----------------------------|

E|--------------------3-------|--3-----------------3-------|

B|--3--5-----5-----5----------|-----5-----5-----5-----5----|

G|----------------------------|----------------------------|

D|----------------------------|----------------------------|

A|----------------------------|----------------------------|

E|----------------------------|--3-----------------3-------|

B|--3--5-----5-----5--3--5----|-----5-----5-----5-----5----|

G|----------------------------|----------------------------|

D|----------------------------|----------------------------|

A|----------------------------|--2-------------------------|

E|----------------------------|--------------------3-------|

B|--3--5-----5-----5--3--5----|-----5-----5-----5-----5----|

G|----------------------------|----------------------------|

D|----------------------------|----------------------------|

A|----------------------------|----------------------------|

E|----------------------------|--3-----------------3-------|

B|--3--5-----5-----5--3--5----|-----5-----5-----5-----5----|

G|----------------------------|----------------------------|

D|----------------------------|----------------------------|

A|----------------------------|----------------------------|

E|----------------------------|--------------------3-------|

B|--3--5-----0--3--0--5--0----|--5--5-----5-----5-----5----|

G|----------------------------|----------------------------|

D|----------------------------|----------------------------|

A|----------------------------|----------------------------|

E|----------------------------|--3-----------------3-------|

B|--3--5-----5-----5--3--5----|-----5-----5-----5-----5----|

G|----------------------------|----------------------------|

D|----------------------------|----------------------------|

A|----------------------------|----------------------------|

E|----------------------------|--7-----------------3-------|

B|--3--5-----5-----5--3--5----|-----5-----5-----5-----5----|

G|----------------------------|----------------------------|

D|----------------------------|----------------------------|

A|----------------------------|----------------------------|

E|----------------------------|--7-----------------3-------|

B|--3--5-----5-----5--3--5----|-----5-----5-----5-----5----|

G|----------------------------|----------------------------|

D|----------------------------|----------------------------|

A|----------------------------|----------------------------|

E|----------------------------|--------------------3-------|

B|--5--5--0--0--3--0--4--0----|--5--5-----5-----5-----5----|

G|----------------------------|----------------------------|

D|----------------------------|----------------------------|

A|----------------------------|----------------------------|

E|----------------------------|--7-----------------3-------|

B|--3--5-----5-----5--3--5----|-----5-----5-----5-----5----|

G|----------------------------|----------------------------|

D|----------------------------|----------------------------|

A|----------------------------|----------------------------|

E|--------------------3-------|--3-----------------3-------|

B|--3--5-----5-----5-----5----|-----5-----5-----5-----5----|

G|----------------------------|----------------------------|

D|----------------------------|----------------------------|

A|----------------------------|----------------------------|

E|----------------------------|--7-----------------3-------|

B|--3--5-----5-----5--3--5----|-----5-----5-----5-----5----|

G|----------------------------|----------------------------|

D|----------------------------|----------------------------|

A|----------------------------|----------------------------|

E|----------------------------|--------------------3-------|

B|--3--5-----0--3--0--4--0----|--5--5-----5-----5-----5----|

G|----------------------------|----------------------------|

D|----------------------------|----------------------------|

A|----------------------------|----------------------------|

E|----------------------------|--7-----------------3-------|

B|--3--5-----5-----5--3--5----|-----5-----5-----5-----5----|

G|----------------------------|----------------------------|

D|----------------------------|----------------------------|

A|----------------------------|----------------------------|

E|----------------------------|--3-----------------3-------|

B|--3--5-----5-----5--3--5----|-----5-----5-----5-----5----|

G|----------------------------|----------------------------|

D|----------------------------|----------------------------|

A|----------------------------|----------------------------|

E|----------------------------|--7-----------------3-------|

B|--3--5-----5-----5--3--5----|-----5-----5-----5-----5----|

G|----------------------------|----------------------------|

D|----------------------------|----------------------------|

A|----------------------------|----------------------------|

E|----------------------------|--------------------3-------|

B|--3--5-----5-----0--3--0----|--5--5-----5-----5-----5----|

G|----------------------------|----------------------------|

D|----------------------------|----------------------------|

A|----------------------------|----------------------------|

E|----------------------------|--7-----------------3-------|

B|--3--5-----5-----5--3--5----|-----5-----5-----5-----5----|

G|----------------------------|----------------------------|

D|----------------------------|----------------------------|

A|----------------------------|----------------------------|

E|----------------------------|--3-----------------3-------|

B|--3--5-----5-----5--3--5----|-----5-----5-----5-----5----|

G|----------------------------|----------------------------|

D|----------------------------|----------------------------|

A|----------------------------|----------------------------|

E|----------------------------|--7-----------------3-------|

B|--3--5-----5-----5--3--5----|-----5-----5-----5-----5----|

G|----------------------------|----------------------------|

D|----------------------------|----------------------------|

A|----------------------------|----------------------------|

E|----------------------------|--------------------3-------|

B|--3--5-----5-----0--3--4----|--5--5-----5-----5-----5----|

G|----------------------------|----------------------------|

D|----------------------------|----------------------------|

A|----------------------------|----------------------------|

E|----------------------------|--7-----------------3-------|

B|--3--5-----5-----5--3--5----|-----5-----5-----5-----5----|

G|----------------------------|----------------------------|

D|----------------------------|----------------------------|

A|----------------------------|----------------------------|

E|-----------------3----------|--7-----------------3-------|

B|--3--5-----5--------5--3----|-----5-----5-----5-----5----|

G|----------------------------|----------------------------|

D|----------------------------|----------------------------|

A|----------------------------|-----7-----7----------------|

E|----------------------------|--7-----------------3-------|

B|--3--5-----5-----5--3--5----|--------5-----5--5-----5----|

G|----------------------------|----------------------------|

D|----------------------------|----------------------------|

A|----------------------------|----------------------------|

E|--------------------7-------|--------------------3-------|

B|--3--5-----5-----5-----3----|--5--5-----5-----5-----5----|

G|----------------------------|----------------------------|

D|----------------------------|----------------------------|

A|----------------------------|----------------------------|

E|----------------------------|--7-----------------3-------|

B|--3--5--5--5-----5--3--5----|-----5-----5-----5-----5----|

G|----------------------------|----------------------------|

D|----------------------------|----------------------------|

A|----------------------------|----------------------------|

E|----------------------------|--7-----------------3-------|

B|--3--5--5--5-----5--3--5----|-----5-----5--5--5-----5----|

G|----------------------------|----------------------------|

D|----------------------------|----------------------------|

A|----------------------------|----------------------------|

E|----------------------------|--7-----------------3-------|

B|--3--5--5--5-----5--3--5----|-----5-----5-----5-----5----|

G|----------------------------|----------------------------|

D|----------------------------|----------------------------|

A|----------------------------|----------------------------|

E|--------3-----2-------------|--------------------3-------|

B|-----5-----5-----5--3--5----|--5--5-----5-----5-----5----|

G|----------------------------|----------------------------|

D|----------------------------|----------------------------|

A|----------------------------|----------------------------|

E|----------------------------|--7-----------------3-------|

B|--3--5-----5-----5--3--5----|-----5-----5-----5-----5----|

G|----------------------------|----------------------------|

D|----------------------------|----------------------------|

A|----------------------------|----------------------------|

E|----------------------------|--7-----------------3-------|

B|--3--5-----5-----5--3--5----|-----5-----5-----5-----5----|

G|----------------------------|----------------------------|

D|----------------------------|----------------------------|

A|----------------------------|----------------------------|

E|--------------------3-------|--3-----------------3-------|

B|--3--5-----5-----5-----5----|-----5-----5-----5-----5----|

G|----------------------------|----------------------------|

D|----------------------------|----------------------------|

A|----------------------------|----------------------------|

E|----------------------------|--------------------3-------|

B|--3--5-----0--3--0--4--0----|--5--5-----5-----5-----5----|

G|----------------------------|----------------------------|

D|----------------------------|----------------------------|

A|----------------------------|----------------------------|

E|----------------------------|--7-----------------3-------|

B|--3--5-----5-----5--3--5----|-----5-----5-----5-----5----|

G|----------------------------|----------------------------|

D|----------------------------|----------------------------|

A|----------------------------|----------------------------|

E|----------------------------|--3-----------------3-------|

B|--3--5-----5-----5--3--5----|-----5-----5-----5-----5----|

G|----------------------------|----------------------------|

D|----------------------------|----------------------------|

A|----------------------------|----------------------------|

E|----------------------------|--7-----------------3-------|

B|--3--5-----5-----5--3--5----|-----5-----5-----5-----5----|

G|----------------------------|----------------------------|

D|----------------------------|----------------------------|

A|----------------------------|----------------------------|

E|--------------3-----2-------|--------------------3-------|

B|--3--5-----5-----5-----3----|--5--5-----5-----5-----5----|

G|----------------------------|----------------------------|

D|----------------------------|----------------------------|

A|----------------------------|----------------------------|

E|----------------------------|--3-----------------3-------|

B|--3--5-----5-----5--3--5----|-----5-----5-----5-----5----|

G|----------------------------|----------------------------|

D|----------------------------|----------------------------|

A|----------------------------|----------------------------|

E|----------------------------|--7-----------------3-------|

B|--3--5-----5-----0--3--5----|-----5-----5-----5-----5----|

G|----------------------------|----------------------------|

D|----------------------------|----------------------------|

A|----------------------------|----------------------------|

E|----------------------------|--3-----------------3-------|

B|--3--5-----5-----5--3--5----|-----5-----5-----5-----5----|

G|----------------------------|----------------------------|

D|----------------------------|----------------------------|

A|----------------------------|----------------------------|

E|--------------------2-------|----------------------------|

B|--3--5-----0--3--0-----5----|-----5-----5--3--5--5--5----|

G|----------------------------|----------------------------|

D|----------------------------|----------------------------|

A|----------------------------|----------------------------|

E|--------3-----7-------------|--3-----------------3-------|

B|-----5-----5-----5--3--5----|-----5-----5-----5-----5----|

G|----------------------------|----------------------------|

D|----------------------------|----------------------------|

A|----------------------------|----------------------------|

E|----------------------------|--7-----------------3-------|

B|--3--5-----5-----5--3--5----|-----5-----5-----5-----5----|

G|----------------------------|----------------------------|

D|----------------------------|----------------------------|

A|----------------------------|----------------------------|

E|----------------------------|--3-----------------3-------|

B|--3--5-----5-----5--3--5----|-----5-----5-----5-----5----|

G|----------------------------|----------------------------|

D|----------------------------|----------------------------|

A|----------------------------|----------------------------|

E|--------------3-----2-------|--------------------3-------|

B|--3--5-----0-----0-----3----|--5--5-----5-----5-----5----|

G|----------------------------|----------------------------|

D|----------------------------|----------------------------|

A|----------------------------|----------------------------|

E|----------------------------|--3-----------------3-------|

B|--3--5-----5-----5--3--5----|-----5-----5-----5-----5----|

G|----------------------------|----------------------------|

D|----------------------------|----------------------------|

A|----------------------------|----------------------------|

E|----------------------------|--7-----------------3-------|

B|--3--5-----5-----5--3--5----|-----5-----5-----5-----5----|

G|----------------------------|----------------------------|

D|----------------------------|----------------------------|

A|----------------------------|----------------------------|

E|----------------------------|--------------------3-------|

B|--3--5-----5-----5--0--3----|--5--5-----5-----5-----5----|

G|----------------------------|----------------------------|

D|----------------------------|----------------------------|

A|----------------------------|----------------------------|

E|--------------7-----3-------|----------------------------|

B|--3--5-----5-----5-----0----|--3--5--5--5-----5-----5----|

G|----------------------------|----------------------------|

D|----------------------------|----------------------------|

A|----------------------------|----------------------------|

E|--------------3-----2-------|--------------------3-------|

B|--5--5-----5-----5-----3----|--5--5-----5-----5-----5----|

G|----------------------------|----------------------------|

D|----------------------------|----------------------------|

A|----------------------------|----------------------------|

E|----------------------------|--7-----------------3-------|

B|--3--5-----5-----5--3--5----|-----5-----5-----5-----5----|

G|----------------------------|----------------------------|

D|----------------------------|----------------------------|

A|----------------------------|----------------------------|

E|----------------------------|--3-------------------------|

B|--3--5-----5-----5--3--5----|-----5-----5-----5--3--5----|

G|----------------------------||

D|----------------------------||

A|----------------------------||

E|----------------------------||

B|--3--5-----5-----5--3--5----||



simplify

key

chords

key

original:   current:  

transpose  


0

expert

 

Learn the NEW Way to Sing With Freedom, Confidence, and Control

click to watch now