Learn Singing, Guitar, Piano, Bass, Percussion at www.NEATcourses.com
Get Chords at www.NEATchords.com

david guetta
hey mama
Chords and lyrics

difficulty: expert



                [Intro]

(Bass)

G|----------------|

D|----------------|

A|----------------|

E|-0--------------|

Guitar

e|---------------------------------|

B|-12-7---12--7-7-7-12-------------|

G|---------------------------------|

D|---------------------------------|

A|---------------------------------|

E|---------------------------------|

(Bass)

G|----------------|

D|----------------|

A|----------------|

E|-0--------------|

Guitar

e|--------------------------------|

B|-12-12-7-12---------------------|

G|--------------------------------|

D|--------------------------------|

A|--------------------------------|

E|--------------------------------|

x2

[Verse]

(Bass)

G|----------------|

D|----------------|

A|----------------|

E|-0--------------|

Guitar

e|---------------------------------|

B|-5-7-7-7-7-7-7-7-7---------------|

G|---------------------------------|

D|---------------------------------|

A|---------------------------------|

E|---------------------------------| x6

[Pre-Hook]

(Bass)

G|----------------|

D|----------------|

A|----------------|

E|-0--------------|

Guitar

e|---------------------------------------------------------------------------|

B|-7-12-12-12---7-12-12-12---7-12-12-12---12-12-10-10-7-10-7-----------------|

G|---------------------------------------------------------------------------|

D|---------------------------------------------------------------------------|

A|---------------------------------------------------------------------------|

E|---------------------------------------------------------------------------|  x2

[Hook]

(Bass)

G|------------------|

D|------------------|

A|------------------|

E|-12-----8---------|

Guitar

e|-0-7-7-7-7-7-5-5-8-7-----|

B|-------------------------|

G|-------------------------|

D|-------------------------|

A|-------------------------|

E|-------------------------|

[Hook]

(Bass)

G|------------------|

D|------------------|

A|------------------|

E|-5-----10---------|

Guitar

e|--0-7-7-7-7-5-5-3-0-----|

B|------------------------|

G|------------------------|

D|------------------------|

A|------------------------|

E|------------------------|

[Hook]

(Bass)

G|------------------|

D|------------------|

A|------------------|

E|-12-----8---------|

Guitar

e|-12-7-7-7-7-7-7-7-7------|

B|-------------------------|

G|-------------------------|

D|-------------------------|

A|-------------------------|

E|-------------------------|

[Hook]

(Bass)

G|------------------|

D|------------------|

A|------------------|

E|-5-----10---------|

Guitar

e|-12-7-7-7-7-7-7---------|

B|------------------------|

G|------------------------|

D|------------------------|

A|------------------------|



simplify

key

chords

key

original:   current:  

transpose  


0

expert