Learn Singing, Guitar, Piano, Bass, Percussion at www.NEATcourses.com
Get Chords at www.NEATchords.com

david guetta
little bad girl
Chords and lyrics

difficulty: intermediate



                David Guetta Feat. Taio Cruz & Ludacris

Nothing But The Beat

Tuning: Standard

Capo: None

Song Order:

Intro x2

Verse x4

Pre-Chrous x2

Chorus x4

Verse x8

Pre-Chrous x2

Chorus x4

Verse x8

Pre-Chrous x2

Bridge x2

Chorus x4

---------------------------------------------------

Intro:

E---------------------------|

B---------------------------|

G---------------------------|

D-----------7---7-----------|

A-------7-7-------10-9-7----|

E-0-0--------------------10-|

---------------------------------------------------

Verse:

Guitar 1

Em Em Em Em Am Am Am Am

E-0--0--0--0--0--0--0--0-|

B-0--0--0--0--1--1--1--1-|

G-0--0--0--0--2--2--2--2-|

D-2--2--2--2--2--2--2--2-|

A-2--2--2--2--0--0--0--0-|

E-0--0--0--0-------------|

Guitar 2

E------------------------------|

B------------------------------|

G------------------------------|

D------------------------------|

A-7-7---10-10-12---12-10-9-7-5-|

E-0-0---0--0--0----0--0--0-0-0-|

Guitar 3

E-------------------------|

B-------------------------|

G-------------------------|

D-------5-5-7---7-5-4-2-0-|

A-7-7-------0---0-0-0-0-0-|

E-0-0---0-0---------------|

---------------------------------------------------

Pre-Chorus:

  C   D   Em  D

E-0---3---0---3-|

B-1---2---0---2-|

G-0---3---0---3-|

D-2---0---2---0-|

A-3-------2-----|

E---------0-----|

---------------------------------------------------

Chorus:

C  D  Em D

E------------|

B------------|

G-5--7--9--7-|

D-5--7--9--7-|

A-3--5--7--5-|

E------------|

---------------------------------------------------

Lyrics:

Oh yeah,

They tell me I'm a bad boy.

All the ladies look at me and act coy.

I just like to put my hands up in the air.

I want that girl dancing over there.

Look at her go on the dancefloor.

She's amazing on the dancefloor.

When she moves, girl I want more.

Keep it going girl, like I got an encore.

You got me saying:

Go little bad girl, little bad girl

Go little bad girl, little bad girl

Go little bad girl, little bad girl

Go little bad girl, go little bad girl

Oh yeah,

They tell me I'm a bad boy.

All the ladies look at me and act coy.

I just like to put my hands up in the air.

I want that girl dancing over there.

Shaking her ass from the left to the right.

Moving it round just the way that I like.

I wanna see her move like a movie on flight.

She got it how I want it and I want it all night.

Look at her go on the dancefloor.

She's amazing on the dancefloor.

When she moves, girl I want more.

Keep it going girl, like I got an encore.

You got me saying.

Go little bad girl, little bad girl

Go little bad girl, little bad girl

Go little bad girl, little bad girl

Go little bad girl, go little bad girl

She got my heart jumpin'.

And my adrenalin pumpin' and gunnin'.

Like ain't nobody ever seen.

As a matter of fact I've seen this woman all up in my dreams.

Whippin' and flippin' and stackin' and slappin'.

I'm attacking after she back it up and make it DROP.

After I met her, I tell her David Guetta is on the track.

Baby girl don't STOP.

Keep it going you never know when somebody gonna throw couple dollars.

Got a pocket full of hundred dollars bills.

Ludacris, Mr. Make-A-Woman-Holla SING.

And every night on the floor putting on a SHOW.

Everybody in the club.

Here's a little something you should know.

Look at her go on the dancefloor.

She's amazing on the dancefloor.

When she moves, girl I want more.

Keep it going girl, like I got an encore.

You got me saying.

Go little bad girl, little bad girl

Go little bad girl, little bad girl

Go little bad girl, little bad girl

Go little bad girl, go little bad girl

Go little bad girl, little bad girl

Go little bad girl, little bad girl

Go little bad girl, little bad girl

Go little bad girl, go little bad girl



simplify

key

chords

key

original:   current:  

transpose  


Em

Am

C

D

2

4

5

6

7

intermediate