Learn Singing, Guitar, Piano, Bass, Percussion at www.NEATcourses.com
Get Chords at www.NEATchords.com

day 6
how can i say
Chords and lyrics

difficulty: expert



[Strumming]

[Intro]

(Palm muted tab section)

[Verse]

(Palm muted tab section)

[Prechorus]

(First half):

DDD DDDD DU

(Second half):

DDD DDDD DU through Bm/G#, Bm/G & Bm/A

DDDU UDD - DDDU for F#m7 then switch to Gmaj7 for UDD once

DDDU UDD - all for F#m7

D - one strum for F#

[Chorus]

(First half):

DD DUUDD

(Second half):

DD DUUDD - Gmaj7 & A

D DDU - for F#m to F#7

DD UUDD - DD for Bm UUDD for A

D - one strum for end Gmaj7 & A

Last chorus:

DD DUUDD for end Gmaj7 & A

quick DUDU at the end

[Bridge]

D DDU

For the last Bm/G ("I can't love you no more") :

DDDDU

D - Quick release for F#m7

[Intro]

e|------------------------------|

B|------------------------------|

G|-----------7-6-6-7-6-6--------|

D|-9-9-7-9-9-------------7------|

A|------------------------------|

E|------------------------------| (x2)

[Verse 1]

e|------------------------------|

B|------------------------------|

G|-----------7-6-6-7-6-6--------|

D|-9-9-7-9-9-------------7------|

A|------------------------------|

E|------------------------------| (x2)

I hate me now

seolleji anneun naega shireo

nae maeumi eonjengabuteo

deoneun baneunghajil ana eh

e|------------------------------|

B|------------------------------|

G|-----------7-6-6-7-6-6--------|

D|-9-9-7-9-9-------------7------|

A|------------------------------|

E|------------------------------|

e|------------------------------|

B|------------------------------|

G|-----------7-6-6-7-6-6-7------|

D|-9-9-7-9-9--------------------|

A|------------------------------|

E|------------------------------|

Hate me now

shigeobeoryeosseumyeon jogesseo

nareul boneun geu nunbiche

sarangi eopseumyeon jogesseo

[Prechorus]

Bm/G#

Baby neon cham haemalkge

Gmaj7no5

nal saranghandae

F#m7                 Bm

nado rago malhago shipeo (no no no)

Bm/G#

neon ttatteuthage

Gmaj7no5

nal barabol ttae

F#m7        Gmaj7            F#m7   F#

imi kkeutna beoryeotdan geol alkka (sorry)

[Chorus]

Gmaj7

eotteoke malhae

A                    F#m7

neon ajikdo nawa hamkke hal ttae mada

Bm

haengbokhae haneunde

Gmaj7

eotteoke malhae

A

nae maeumeun imi tteonatdaneun mal

F#m7 F#7    Bm

chama naojiga ana

A          Gmaj7 A

Oh how can I say   oh

[Verse 2]

e|------------------------------|

B|------------------------------|

G|-----------7-6-6-7-6-6--------|

D|-9-9-7-9-9-------------7------|

A|------------------------------|

E|------------------------------| (x2)

I hate me now

ireon naega neomuna miwo

neowa tteoreojyeo isseul ttae

pyeonhage neukkyeojineun naega eh

e|------------------------------|

B|------------------------------|

G|-----------7-6-6-7-6-6--------|

D|-9-9-7-9-9-------------7------|

A|------------------------------|

E|------------------------------|

e|------------------------------|

B|------------------------------|

G|-----------7-6-6-7-6-6-7------|

D|-9-9-7-9-9--------------------|

A|------------------------------|

E|------------------------------|

Hate me now

nunchireul chaesseumyeon jogesseo

haneopshi malkeun nuneuro

misoreul boiji marajwo

[Prechorus]

Bm/G#

Baby neon cham haemalkge

Gmaj7no5

nal saranghandae

F#m7                 Bm

nado rago malhago shipeo (no no no)

Bm/G#

neon ttatteuthage

Gmaj7no5

nal barabol ttae

F#m7        Gmaj7            F#m7   F#

imi kkeutna beoryeotdan geol alkka (sorry)

[Chorus]

Gmaj7

eotteoke malhae

A                    F#m7

neon ajikdo nawa hamkke hal ttae mada

Bm

haengbokhae haneunde

Gmaj7

eotteoke malhae

A

nae maeumeun imi tteonatdaneun mal

F#m7 F#7    Bm

chama naojiga ana

A          Bm

Oh how can I

[Bridge]

   Bm/A       Bm/G#  Bm/G Bm

(I don’t love you no more)

No more

   Bm/A       Bm/G#  Bm/G

(I don’t love you no more)

     Bm         Bm/A     Bm/G#          Bm/G

neol saranghago shipeodo hal suga eopseo

(I don’t love you no more)

Bm         Bm/A

imi tteobeorin nae mam

(I don’t love you no more)

  Bm/G#             Bm/G  F#m7

I can’t love you no more

[Chorus]

Gmaj7

eotteoke malhae

A                    F#m7

neon ajikdo nawa hamkke hal ttae mada

Bm

haengbokhae haneunde

Gmaj7

eotteoke malhae

A

nae maeumeun imi tteonatdaneun mal

F#m7 F#7    Bm

chama naojiga ana

A         Gmaj7

Oh how can I

A

say



simplify

key

chords

key

original:   current:  

transpose  


Bm/G#

F#m7

Bm

Gmaj7

F#

A

F#7

ABm

G#Bm

GBm

G

BmBm

Bm/A

GF#m7

None

expert