Learn Singing, Guitar, Piano, Bass, Percussion at www.NEATcourses.com
Get Chords at www.NEATchords.com

day 6
shoot me
Chords and lyrics

difficulty: expert



                [Intro]

(Bass)

[Verse 1]

                   Fm

shwiun iri jeoldae anya

C

ne ape seoneun geon

C#                 C

seurilleo hanpyeoniya

         Fm

jal nagadagado

       C

mwonga eogeutnamyeon

C#              C

geudaero shijagiya

[Verse 2]

                  Fm         C

ssaneulhaejyeo ganeun ne nunbit

          C#        C

mugeowojineun bunwigi

              Fm                   C

nan geu jari gamanhi anjeun chae sumeul

     C#    C

goreugo isseo

[Pre-Chorus]

               C#

seororeul hyanghan

D5

maltuneun jeomjeom deo

G                C

nalkarowojyeoman ga

[Chorus 1]

           C#

geurae nal sswa

C#

Bang bang

      G#

neoye bullet bullet bullet

C                  Fm

eolmadeunji majajulge

       C#       G#

wonhan ge igeoramyeon

C

Just shoot me

C

Shoot me

[Chorus 2]

                C#

nareul hyanghae sswa

C#

Bang bang

      G#

geuge pyeonhae pyeonhae pyeonhae

C                Fm

ijen neomu iksukhae

    C#          G#

igeollo pullindamyeon

Bbm

Just shoot me

C

Shoot me

[Interlude]

Fm C

Fm C#

e|-----------13-11--------------------13-11h13-11-9-8-|

B|------11-13-----13-9-11-8------11-13----------------|

G|-10-13--------------------10-13---------------------|

D|----------------------------------------------------|

A|----------------------------------------------------|

E|----------------------------------------------------|

[Verse 3]

                    Fm

igeol gidaehan geon anya

C

neowa wonhaetteon geon

C#                 C

romaenseu hanpyeoniya

Fm               C

hajiman hyeonshireun

C                 C#

tukhamyeon bulkeojyeo

C#             C

hanpyeone Dramaya

[Verse 4]

                Fm

neoye daesa sok "ijen kkeuchiya"

Fm

jinshimi anigil bireo

Fm              Fm               C

geujeo buranhan mame baeteun georago

C#        C

mitgo shipeo

[Pre-Chorus]

               C#

seororeul hyanghan

D5

maltuneun jeomjeom deo

G                C

nalkarowojyeoman ga

[Chorus 1]

           C#

geurae nal sswa

C#

Bang bang

      G#

neoye bullet bullet bullet

C                  Fm

eolmadeunji majajulge

       C#       G#

wonhan ge igeoramyeon

C

Just shoot me

C

Shoot me

[Chorus 2]

                C#

nareul hyanghae sswa

C#

Bang bang

      G#

geuge pyeonhae pyeonhae pyeonhae

C                Fm

ijen neomu iksukhae

    C#          G#

igeollo pullindamyeon

Bbm

Just shoot me

C

Shoot me

[Bridge]

Fm

(I’m okay)

Fm

(So if you wanna hurt me)

Fm

(Baby just hurt me)

Fm

(I’m okay)

Fm

(So if you wanna hurt me)

Fm

(Baby just hurt me)

    Fm        G#         C#        C

gaseume bakhineun neoye hanbal hanbari

     Fm         G#

sashireun neomu apa

            Bbm     C

It hurts so bad, so bad

[Chorus 1]

           C#

geurae nal sswa

C#

Bang bang

      G#

neoye bullet bullet bullet

C                  Fm

eolmadeunji majajulge

       C#       G#

wonhan ge igeoramyeon

C

Just shoot me

C

Shoot me

[Chorus 2]

                C#

nareul hyanghae sswa

C#

Bang bang

      G#

geuge pyeonhae pyeonhae pyeonhae

C                Fm

ijen neomu iksukhae

    C#          G#

igeollo pullindamyeon

Bbm

Just shoot me

C

Shoot me

[Outro]

C# G# C Fm

C# G# Bbm C

e|------------------------------------------------------------------|

B|----------------------------11-13-11-13--13-11--------------------|

G|-10-8-10--10-12-13-10-13--13------------------10--10-12-13-12-10--|

D|------------------------------------------------------------------|

A|------------------------------------------------------------------|

E|------------------------------------------------------------------|

e|------------------------------------------11h13-11----------------|

B|----------------------------11-13-11-13-11--------13--------------|

G|-10-8-10--10-12-13-10-13--13--------------------------------------|

D|------------------------------------------------------------------|

A|------------------------------------------------------------------|

E|------------------------------------------------------------------|



simplify

key

chords

key

original:   current:  

transpose  


Fm

C

C#

D5

G

G#

Bbm

None

expert