Learn Singing, Guitar, Piano, Bass, Percussion at www.NEATcourses.com
Get Chords at www.NEATchords.com

day 6
warning
Chords and lyrics

difficulty: expert



                [Intro]

e|-7-7-7-7--7-7-7-7---------------------------------------|

B|-8-8-8-8--8-8-8-8---------------------------------------|

G|-9-9-9-9--9-9-9-9------repeat 2x------------------------|

D|-9-9-9-9--9-9-9-9---------------------------------------|

A|-7-7-7-7--7-7-7-7---------------------------------------|

E|-7-7-7-7--7-7-7-7---------------------------------------|

e|--------------------------------------------------------|

B|-8---5-8-8---5--10-10---5-10---5------------------------|

G|---4-------4----------6------6--------------------------|

D|--------------------------------------------------------|

A|--------------------------------------------------------|

E|--------------------------------------------------------|

e|--------------------------------------------------------|

B|-8---5-8-8---5--10-10---5-10-10-8-7-5-------------------|

G|---4-------4---------6----------------------------------|

D|--------------------------------------------------------|

A|--------------------------------------------------------|

E|--------------------------------------------------------|

Em  A  C  Em

WARNING!

Em  A  C  Em

WARNING!

G

You gotta stop

G

You gotta stop

G

You gotta stop now

B

You gotta stop

B

You gotta stop

B

You gotta stop now

Em  A  C  Em

WARNING!

[Verse 1]

E

Wiheomhae

A

Nunbitbuteo beolsseo

  C           Em

Ajjilhae boijana

E

Wiheomhae

A                  C

Sonjitbuteoga beolsseo

          Em

Namdareujana

E               Em

Modudeul mallijiman (andwae)

   Am

Geuge (andwae)

         C               Em

Meomchweoseogien neujeosseo

E           Em

Gaji mallajiman (andwae)

Am

Imi (andwae)

  C                   Em

Momi nae mareul an deureo

[Pre-Chorus]

             Dm          Bm

Nado moreuge neoege puk ppajil daero

Am     Em

Ppajyeobeoryeosso

[Chorus]

G                 C

“i seoneul neomji mashio”ran

B

Mari ape ppeonhi

Em

Sseoittaedo mot chamgesseo

G                    C

Jeoldae neomji mallago

    B

Geu nuga mwora hadeun

Em

Imi balba beoringeoryo

G           C           B

I gyeolmari ppeonhagetjiman

             Em

Neol gamdang mothagetjiman

          C

But gotta go go go go go go go

B

Gotta go over the line

B

Tonight

[Verse]

E           A

Geureokena â€œhaji ma!”ra hamyeon

    C               Em

Tto deo hago shipdeora

E

Saramdeuri â€œhaji ma!”rago

A             C            Em

Malhal ttaen iyuga da itteora

E                Em

Jeonbu da mallijiman (andwae)

   A

Geuge (andwae)

      C              Em

Mulleoseogien neujeosseo

E             Em

Dachil georajiman (andwae)

A

Imi (andwae)

  C                   Em

Momi nae mareul an deureo

[Chorus]

G                 C

“i seoneul neomji mashio”ran

B

Mari ape ppeonhi

Em

Sseoittaedo mot chamgesseo

G                    C

Jeoldae neomji mallago

    B

Geu nuga mwora hadeun

Em

Imi balba beoringeoryo

G           C           B

I gyeolmari ppeonhagetjiman

             Em

Neol gamdang mothagetjiman

          C

But gotta go go go go go go go

B

Gotta go over the line

B

Tonight Tonight

Em  A  C  Em

WARNING!

Em  A  C  Em

WARNING!

[Pre-Chorus]

             Dm          Bm

Nado moreuge neoege puk ppajil daero

Am     Em

Ppajyeobeoryeosso

[Chorus]

G                 C

“i seoneul neomji mashio”ran

B

Mari ape ppeonhi

Em

Sseoittaedo mot chamgesseo

G                    C

Jeoldae neomji mallago

    B

Geu nuga mwora hadeun

Em

Imi balba beoringeoryo

G           C           B

I gyeolmari ppeonhagetjiman

             Em

Neol gamdang mothagetjiman

          C

But gotta go go go go go go go

B

Gotta go over the line

B

Tonight tonight

[Outro]

G

You gotta stop

G

You gotta stop

G

You gotta stop now

B

You gotta stop

B

You gotta stop

B

You gotta stop now

Em  A  C  Em

N.C

You gotta stop

N.C

You gotta stop

N.C

You gotta stop now

N.C

You gotta stop

N.C

You gotta stop

N.C

You gotta stop now



simplify

key

chords

key

original:   current:  

transpose  


Em

A

C

G

B

E

Am

Dm

Bm

None

expert