Learn Singing, Guitar, Piano, Bass, Percussion at www.NEATcourses.com
Get Chords at www.NEATchords.com

day 6
what can i do
Chords and lyrics

difficulty: expert



                

Bm            E                Bm

neoege naneun dodaeche mwon geoni

         E             D

naega mame itgineun hani

   A       Bm   A       G

mannal ttaemada dareun neon

    Bb              Bm

aldagado moreugesseo

[Verse 2]

E|---------------------------------------------|

B|---------------------------------------------|

G|---------------------------------------------|

D|------9-------9------------------------------|

A|-5-7/9-7/5-7-5--5-7/9-9-7/5-7-5-5-4-2-0------|

E|7--------------7-----------------------3-6-8-|

        E                     Bm

sesange modeun sarameul mannado

          E                       D

naege naejul shiganeun eopneun geoni

   A     Bm       A      G

neomuhae neon wae geureoke

     Bb     C   Bm

andal nage hae

[Pre-Chorus]

Bm        Bb         A

nappeuji neon nado alji

        Gm            G

geureonde daeche wae nan

G

geureon neoreul jjochadanikka

A

Ooh oh oh Ooh Ooh

[Chorus 1]

D              Em

joeun geol mwo eotteokhae

F#m             G

imi ppajin geol eojjeonya

   F#m

nal deureotta nwatta

B              Em

haneun geotto joahaneun

A

nado nada ya

[Chorus 2]

D              Em

joeun geol mwo eotteokhae

   F#m       G

hanshimhaedo eojjeogetnya

F#m

nan geunyang neorang

B                Em

gati itneun ge joa

      A

nado cham dabi eobtta ya

[Interlude]

e|------------------|

B|------------------|

G|------------------|

D|-9---------9-----9|

A|---5-7-7/9--5-7/9-|

E|--7-------7-------|

[Verse 3]

E|---------------------------------------------|

B|---------------------------------------------|

G|---------------------------------------------|

D|------9-------9------------------------------|

A|-5-7/9-7/5-7-5--5-7/9-9-7/5-7-5-5-4-2-0------|

E|7--------------7-----------------------3-6-8-|

B            E                   B

gakkeumsshik naege boyeojun misoga

          E              D

gyesok nunape areungeoryeo

    A       Bm      A        G

han beonman deo han beonman deo

      Bb              Bm

bogo shipeo hago isseo

[Verse 4]

E|---------------------------------------------|

B|---------------------------------------------|

G|---------------------------------------------|

D|------9-------9------------------------------|

A|-5-7/9-7/5-7-5--5-7/9-9-7/5-7-5-5-4-2-0------|

E|7--------------7-----------------------3-6-8-|

             E                        Bm

gakkeumsshik naege namgyeojun munjaman

         E                 D

gyesok bomyeonseo utgo isseo

  A    Bm     A     G

algo isseo andanikka

      Bb     C      Bm

miryeonhadaneun geol

[Pre-Chorus]

Bm        Bb         A

nappeuji neon nado alji

        Gm            G

geureonde daeche wae nan

G

geureon neoreul jjochadanikka

A

Ooh oh oh Ooh Ooh

[Chorus 1]

D              Em

joeun geol mwo eotteokhae

F#m             G

imi ppajin geol eojjeonya

   F#m

nal deureotta nwatta

B              Em

haneun geotto joahaneun

A

nado nada ya

[Chorus 2]

D              Em

joeun geol mwo eotteokhae

   F#m       G

hanshimhaedo eojjeogetnya

F#m

nan geunyang neorang

B                Em

gati itneun ge joa

      A

nado cham dabi eobtta ya

[Pre-Chorus]

Bm        Bb         A

nappeuji neon nado alji

        Gm            G

geureonde daeche wae nan

G

geureon neoreul jjochadanikka

N.C.

Ooh oh oh Ooh Ooh

[Chorus 1]

D              Em

joeun geol mwo eotteokhae

F#m             G

imi ppajin geol eojjeonya

   F#m

nal deureotta nwatta

B              Em

haneun geotto joahaneun

A

nado nada ya

[Chorus 2]

D              Em

joeun geol mwo eotteokhae

   F#m       G

hanshimhaedo eojjeogetnya

F#m

nan geunyang neorang

B                Em

gati itneun ge joa

      A

nado cham dabi eobtta ya

[Outro]

D Em F#m G

F#m B Em A

D Em F#m G



simplify

key

chords

key

original:   current:  

transpose  


Bm

E

D

A

G

Bb

C

Gm

Em

F#m

B

None

expert