Learn Singing, Guitar, Piano, Bass, Percussion at www.NEATcourses.com
Get Chords at www.NEATchords.com

earlimart
heaven adores you
Chords and lyrics

difficulty: expert



-------------------------------------------------------------------------------

-------------------------------------------------------------------------------

Tuning:standard

       Bb    Dm     G     A

e|-----0------0-----0-----0---------------------------|

B|-----0------6-----0-----0---------------------------|

G|-----7------7-----4-----6---------------------------|

D|-----8------7-----5-----7---------------------------|

A|-----8------5-----5-----7---------------------------|

E|-----6------------3-----5---------------------------|

Bb              Dm

stepped on the cracks

Bb                     Dm

but you broke your own back

Bb                   Dm

the things that you own

          G                A

that you bought and stole

Bb                 Dm

we knocked on the doors

Bb                   Dm

tell me what its all for

Bb                 Dm

who am I suppose to be

 G              A

anyone but me

Bb Dm Bb Dm Bb Dm G A

Bb               Dm

got dirt on your face

Bb                         Dm

still you got something to say

Bb                 Dm

gonna' make it all right

        G               A

if you find the time

Bb                Dm

and Heaven adores you

Bb            Dm 

Heaven adores you

Bb          Dm 

Heaven adores

 G        A

you now



simplify

key

chords

key

original:   current:  

transpose  


Bb

Dm

G

A

None

expert

 

New Free App: Soji lets you instantly record, enhance & share your songs. Download Now ยป