Learn Singing, Guitar, Piano, Bass, Percussion at www.NEATcourses.com
Get Chords at www.NEATchords.com

eden ahbez
fumes
Chords and lyrics

difficulty: intermediate



                [Intro]

e|---------------------------------------------------------------------------|

B|---------------------------------------------------------------------------|

G|-12---12---12---12---12---11---11---9---5---5---5---5---5---5---5----------|

D|---------------------------------------------------------------------------|

A|---------------------------------------------------------------------------|

E|-12--------12--------10--------10-------5-------5-------5-------5----------|

[Verse 1]

   G       Am                      C       D         Em

e|---------------------------------------------------------------------------|

B|---------------------------------------------------------------------------|

G|---4---4---5---5---5---5---5---5---9---9---11---11---12---12---12---12-----|

D|---------------------------------------------------------------------------| x2

A|---------------------------------------------------------------------------|

E|-3---3---5---5---5---5---5---5---8---8---10---10---12---12---12---12-------|

G Am

the morning light shines a lifeline

C          D       Em

escape is what i need

G           Am

i should've listened last night girl

C        D         Am

this is beyond belief

   Bm              C               Em                  D

e|---------------------------------------------------------------------------|

B|---------------------------------------------------------------------------|

G|---7---7---7---7---9---9---9---9---12---12---12---12---11---11---11---11---|

D|---------------------------------------------------------------------------| x2

A|---------------------------------------------------------------------------|

E|-7---7---7---7---8---8---8---8---12---12---12---12---10---10---10---10-----|

             Bm                 C

that we keep falling for the lure of

       Em                  D

liquid confidence and lights

     Bm                C

and we skydive from walls we built

Em                   D

dying just to feel alive

[Chorus]

N.C

on the way down screamin'

Em C

woah

G

if all we have is time then we'll be alright

Em C

woah

G

it's not much but it's better than nothing

Em C

woah

G

were running on fumes but we'll make it through the night

Em C

Woah

G

it's not love but it's better than dreaming

[Verse]

           G

oh i'm on fire

             Bm       

there's a burning in my bones

           Em          C                    D         

and in my eyes these dreams they're taking hold

            Em D  Em C

i just need time

[Bridge]

G

building walls to burn them down

cannon balls to watch me drown

    Bm

you got me lost in here and now you got me gone in lost and found

Em                             D

we only hang in evenings and i dont know what im thinkin

      C

but i know that i wont think it if i keep up with this thinkin

G

all these dreams and all these plans that we shared under the moonlight

Bm

and the dreams and plans that i have if i dont know if youll feel right

Em                              D

if i leave in the morning and i kiss you and say goodnight

C

i kick myself until we kick it shoulda told you goodbye

Em

coming home so late and night

D

with clothes covered in the sand

   C

i dont know what im missin but im doin what i can and if we all is time then we will be alright

[Chorus]

Em C

woah

G

if all we have is time then we'll be alright

Em C

woah

G

it's not much but it's better than nothing

Em C

woah

G

were running on fumes but we'll make it through the night

Em C

Woah

G

it's not love but it's better than dreaming            X2

[Outro]



simplify

key

chords

key

original:   current:  

transpose  


G

Am

C

D

Em

Bm

1

2

3

4

5

6

7

intermediate