Learn Singing, Guitar, Piano, Bass, Percussion at www.NEATcourses.com
Get Chords at www.NEATchords.com

edward sharpe and the magnetic zeros
come in please
Chords and lyrics

difficulty: expert



                One difficult tab to hear, but here it is. Hope it is correct

and if you think there are some mistakes, feel free to contact

*Note: the Bb in the chorus could also be Bbsus4.

Intro:

  G          Bb        C        G          

Bb        C        G

E---------------------------------------------------------------------|

B-3------3---6-----6---8-----6--3------3---6-----6---8-----6--3-----3-|

G---0----------0---------0--------0----------0---------0--------0-----|

D---------------------------------------------------------------------|

A---------------------------------------------------------------------|

E-3---3------6---6-----8---8----3---3------6---6-----8---8----3---3---|

  Bb        C                 G        Bb        

C        G

E--------------------------------------------------------------------|

B-6-----6---8-----8--8-----6--3-----3--6-----6---8-----6--3------3---|

G---0----------0-------0--------0--------0---------0--------0--------|

D--------------------------------------------------------------------|

A--------------------------------------------------------------------|

E-6---6-----8---8----8---8----3---3----6---6-----8---8----3---3------|

G

E--------------------------------------------------------------------|

B-3-----3---3------3---3------3--------------------------------------|

G---0----------0---------0-------------------------------------------|

D--------------------------------------------------------------------|

A--------------------------------------------------------------------|

E-3---3-----3----3-----3----3----------------------------------------|

(1)

G               Bb            C         G

Once upon a time I was the hurricane boy

       Bb            C             G

There was no eye in me for you to hide

Bb        C                         G

Head low don't show oceans in my eyes

       Bb               C             G

As the waves clap goodbye to sorrow

(2)

G                F              C

Daddy's on the mountain yellin' at the bloody sky

G              F            C

Mama's in the mirror actin out another life

G                  F                C          Cm

Children in the schoolyard singin' 'everybody dies'

    G            Bb            C            G

And I am on the corner with a sentimental eye

G            Bb            C           G

I am on the corner singin sentimental lies.

(1)

G                 Bb                C                  G

Hopped up on a gypsy train with tracks that you can hide

      Bb                 C               G

That way no storm could follow our tomorrows

   Bb                C                         G

But Shackled to a suitcase full of automatic thunder     CLAP!

Bb               C                G

All hail to death's boy-wonder

(2)

G            F              C

JJ's in the kitchen talking bout the end of times

G            F          C

Mo's thowin Kerouac to Catch Her In the Rye

G             F           C            Cm

Tempermental yogis bakin merryweather pie

    G            Bb            C          G

And I am on the corner with a sentimental eye

G            Bb             C           G

I am on the corner singin' sentimental lies

(Chorus)

 G                   F

Sometimes said it's suntime

        C            Bb

Let it sunshine on my mind

(Outro)

11-10-8-6-10-6------------------------------|

---------------5-----------1-------1--------|

-----------------7-3---0h2----2----0h2------|

--------------------------------------------|

--------------------------------------------|

--------------------------------------------|

All the same its conscience waiting

Cross the line

*Intro again and the chords are the same in the rest of the song.

(1)

Last night I dreamed myself upon a golden glade

The clouds passed in and out of my reflection

And everyone I've known held my hands till they were clay

And the storm finally bled from my complexion

(2)

Now Jadey's on the mountain singing 'We will never die'

The band is in the rainbow playin love for you and I

Heath is riding shotgun aimin at the paper sky

And I am only 'I am' now I've opened up my eye

I am only 'I am' that I've opened up my eye

(Chorus)

Sometimes said its suntime

Let it sunshine on my mind

Healing I need healing

A good feeling I can Shine

Feel it like you can see it

Like you can dream it in your mind

Sunny Hallelujah comin to ya

Rain or shine

I'm just saying its Conscience waiting

Cross the line

E-------------------------------------------------------------------------|

B-0-----0--0-----0-3-----3--3------3--1------1--1-----1--4-----4--4-----4-|

G---0--------0-------0---------0----------0-------0--------0--------0-----|

D-------------------------------------------------------------------------|

A-2---2----2---2----------------------------------------------------------|

E------------------3---3----3----3----1----1----1---1----1---1----1---1---|

E----------------------------------------------------------------------------|

B-3------3---3------3--3-----3--3-----3--1-----1--1-----1--4-----4---6-----4-|

G---0----------0---------0--------0--------0--------0--------0---------0-----|

D----------------------------------------------------------------------------|

A----------------------------------------3---3----3---3----1---1-----3---3---|

E-3---3------3---3-----1---1----1---1----------------------------------------|

E----------------------------------------------------------------------------|

B-3------3---3------3--3-----3--3-----3--1-----1--1-----1--4-----4---4-----4-|

G---0----------0---------0--------0--------0--------0--------0---------0-----|

D----------------------------------------------------------------------------|

A----------------------------------------3---3----3---3----1---1-----1---1---|

E-3---3------3---3-----1---1----1---1----------------------------------------|

(And repeat this last riff)

Cross the line

Cross the line

G

Cross the line

           F

Cross the line

           C

Cross the line

           Bbsus4

Cross the line

x6

Uuuh uuuh !

Uuuh uuuh !

Uuuh uuuh !

Cross the line !

X2

(Outro)

All the same its conscience waiting



simplify

key

chords

key

original:   current:  

transpose  


G

Bb

C

F

Cm

Bbsus4

None

expert

 

New Free App: Soji lets you instantly record, enhance & share your songs. Download Now ยป