Learn Singing, Guitar, Piano, Bass, Percussion at www.NEATcourses.com
Get Chords at www.NEATchords.com

edwin starr
25 miles bass
Chords and lyrics

difficulty: expert



                intro:

----------------------------|

----------------------------|

--------------2-4--2-4-2----|

-1--31--3-4--4--------------|

main riff: this repeated throughout the whole song

--------------------|

--------------------|

-----2-4--2-4-2-----|

-4--4---------------|

there are occasional fills but i won't tab those so you can have fun with those

the bass occasionally doesn't play but you should know when.

please leave any ratings or comments



simplify

key

chords

key

original:   current:  

transpose  


0

expert