Learn Singing, Guitar, Piano, Bass, Percussion at www.NEATcourses.com
Get Chords at www.NEATchords.com

edwin starr
headline news bass
Chords and lyrics

difficulty: expert



                Original Artist: Edwin Starr

Original Bassist: Bob Babbitt

Very easy song. Just waitch out for the pauses

in the Intro.  Any comments e-mail me at

Intro:  .    .           .    .

G---------------------------------|

D-----4-6--------------4-6--------|

A---6----------------6------------|

E-----------44---------------44---|

Verse:

G--------------------------------------------|

D--------------------------------------------|

A--------------------------------------------|

E---44444444-4444444-2---44444444-44444444---|

G-----------------------------------------------------------------|

D-----------------------------------------------------------------|

A---11111111---3333333-----------------------11111111---3333333---|

E----------------------0-11111111-11111111------------------------|

G---------------------------------------------------------------|

D---------------------------------------------------------------|

A------------------------44444444----------11111111-------------|

E---0-11111111-11111111-----------11111111-----------33333333---|

Chorus:

G----------------------------------------------|

D-----------------------------------11111111---|

A-------------------------11111111-------------|

E---4444444-3---11111111-----------------------|

Repeat Verse & Chorus:

Sax Solo:

G---------------------------------------------------------------|

D---------------------------------------------------------------|

A-------------------------------------------44444444------------|

E---44444444-4444444-2---44444444-44444444-----------11111111---|

G-----------------------|

D-----------------------|

A---11111111------------|

E------------33333333---|

Repeat Chorus:

Repeat Verse:

Repeat Chorus:

Outro (Repeat to Fade)

G--------------------------------------------|

D--------------------------------------------|

A--------------------------------------------|

E---44444444-4444444-2---44444444-44444444---|



simplify

key

chords

key

original:   current:  

transpose  


0

expert