Learn Singing, Guitar, Piano, Bass, Percussion at www.NEATcourses.com
Get Chords at www.NEATchords.com

eir aoi
ignite bass
Chords and lyrics

difficulty: expert



                Intro 0:12

G|-------------------------------------------------------------------------|

D|---------------------------------------------------------------2-0-------|

A|-------------------------------5-5-------------5-5-5-----0---0-----3-0---|

E|-5-5-----1---1-1-1-1-1-1-3-3-3-------3-3-4-4-4-------4-4---3-----------3-|

   3 + 4 + 1 + 2 + 3 + 4 + 1 + 2 + 3 + 4 + 1 + 2 + 3 + 4 + 1 + 2 + 3 + 4 +

G|------------------------------------------------------------------------|

D|---------------------------------------------12-11----------------------|

A|-----------------------5-5-5---------5---5-7---------12-12-10-12-12-----|

E|-1---1-1-1-1-1-1-3-3-3-------3-3-5-5---5--------------------------------|

   1 + 2 + 3 + 4 + 1 + 2 + 3 + 4 + 1 + 2 + 3 + 4  +  1 +  2  +  3  +  4 +

Verse 0:25

G|-----------------------------------------------------------------|

D|-----------------------------------------------------------------|

A|-----------------------------------------------------------------|

E|-5---------------------------------------------------------------|

   1 + 2 + 3 + 4 + 1 + 2 + 3 + 4 + 1 + 2 + 3 + 4 + 1 + 2 + 3 + 4 +

G|-----------------------------------------------------------------|

D|-----------------------------------------------------------------|

A|-----------------------------------------------------------------|

E|-1---------------3---------------5-----------------------r-------|

   1 + 2 + 3 + 4 + 1 + 2 + 3 + 4 + 1 + 2 + 3 + 4 + 1 + 2 + 3 + 4 +

0:36

G|-----------------------------------------------------------------|

D|-----------------------------------------------------------------|

A|---------------------------------5---5---------------------------|

E|-5---5---5---5---5---5---5---5-----------------------------------|

   1 + 2 + 3 + 4 + 1 + 2 + 3 + 4 + 1 + 2 + 3 + 4 + 1 + 2 + 3 + 4 +

G|-----------------------------------------------------------------|

D|-----------------------------------------------------------------|

A|---------------------------------------------------------3-2-----|

E|-1---1---1---1---3---3---3--/12\-3-----5-----3-----5---3-----3-0-|

   1 + 2 + 3 + 4 + 1 + 2 + 3 + 4 + 1 + 2 + 3 + 4 + 1 + 2 + 3 + 4 +

Pre Chorus 0:48

G|---------------------------------------------------------------------|

D|-------------------------------------------------------/-12-12-10----|

A|-5-5---5-5---7-7---7-7-\---------6-6---6-6---5-5---5-5------------12-|

E|---------------------------------------------------------------------|

   1 + 2 + 3 + 4 + 1 + 2 + 3 + 4 + 1 + 2 + 3 + 4 + 1 + 2 + 3  +  4  +

G|---------------------------------------------7-7---------------------|

D|------------------10-----10----------------7-----7-7-----------------|

A|-3---3-3-3---/-10-----------10-------5-----------------------5---5-7-|

E|-----------------------------------------------------0-0-5-7---7-----|

   1 + 2 + 3 + 4 +  1  + 2 +  3  + 4 + 1 + 2 + 3 + 4 + 1 + 2 + 3 + 4 +

G|---------------------------------|

D|---------------------------------|

A|-7-----7-5-----7-----------------|

E|---7-5-----7-5-------------------|

   1 + 2 + 3 + 4 + 1 + 2 + 3 + 4 + 

Chorus 1:02

G|-----------------------------------------------------------------|

D|-----------------------------------------------------------------|

A|---------------------------------------------------5-3-2-3-2-----|

E|-1---1-1-1-1-1-1-1-1-1-1-1-1-1-1-3-3-3-3-3-3-3-3-3-----------3-3-|

   1 + 2 + 3 + 4 + 1 + 2 + 3 + 4 + 1 + 2 + 3 + 4 + 1 + 2 + 3 + 4 +

G|---------------------------------------------------------------------|

D|-----------------------------------------------------------10-9-7----|

A|-----------------------------------7-----------------10-10--------10-|

E|-0-0-0-0-0-0-0-0-0-0-0-0-3-3-3-3-5---5-5-7-5-7-8-8-7-----------------|

   1 + 2 + 3 + 4 + 1 + 2 + 3 + 4 + 1 + 2 + 3 + 4 + 1 + 2  +  3  + 4 +

1:12

G|-----------------------------------------------------------------|

D|-----------------------------------------------------------------|

A|-------------------------3---------------2-2-2-2-3-3-3-3-5-5-5-5-|

E|-1---1-1-1-1-1-1-1-1-1-1-----1-1-3-3-3-3-------------------------|

   1 + 2 + 3 + 4 + 1 + 2 + 3 + 4 + 1 + 2 + 3 + 4 + 1 + 2 + 3 + 4 +

G|-----------------------------------------------------------------------------|

D|-----------------------------------------10----10-12-12h14-12-10-12-10-------| 12h14 = 12-12h14

A|-7-/12\--------------------------0-0-0-/----12-------------------------12-10-|

E|-----0-0-0-0-0-0-0-0-0-0-3-3-3-3---------------------------------------------|

   1 + 2 + 3 + 4 + 1 + 2 + 3 + 4 + 1 + 2 + 3  +  4  +  1  +  2  +  3  +  4  +

1:24

G|----------------------------------------------------------------------|

D|----------------------------------------------------------------------|

A|-----------------8-8-8-8-8-8-8-------------------10-10-8-10-10-8-10-8-|

E|-1---1-1-1-1-1-1-----------------3---3-3-3-3-3-3----------------------|

   1 + 2 + 3 + 4 + 1 + 2 + 3 + 4 + 1 + 2 + 3 + 4 + 1  +  2 +  3  + 4 +

G|----------------------/14-14-14------------14---------14------------14---------|

D|--------------------------------14-------------------------------14------------|

A|-------------------------------------12-12----12---12----12---12---------12\---|

E|-5-5-5-5-5-5-5-5-5-5-5---------------------------------------------------------|

   1 + 2 + 3 + 4 + 1 + 2 +  3  +  4  + 1  +  2  +  3 +  4  +  1 +  2  +  3 + 4 +

Interlude 1:35

G|------------------------------------------------------------------------|

D|---------------------------------------------12-11----------------------|

A|-----------------------5-5-5---------5---5-7---------12-12-10-12-12-----|

E|-1---1-1-1-1-1-1-3-3-3-------3-3-5-5---5--------------------------------|

   1 + 2 + 3 + 4 + 1 + 2 + 3 + 4 + 1 + 2 + 3 + 4  +  1 +  2  +  3  +  4 +

Verse 1:40

G|------------------------------------------------------------------|

D|--------------------------------/7-----7-5h7--/12---7-7-7---5-----|

A|-------------------------3-2----------------------------------8-7-|

E|-5---5-5-3---3-5---5-5-------3-3----------------------------------|

   1 + 2 + 3 + 4 + 1 + 2 + 3 + 4 + 1 + 2 + 3 + 4 +  1 + 2 + 3 + 4 +

G|---------------------------7--------------------------------14------------|

D|-----------------5-5-5-5-5---5--/7---7------------------------------------|

A|---------8---\--------------------------/12---12-12---12-12------12h14-10-|

E|-1---/--------------------------------------------------------------------|

   1 + 2 + 3 + 4 + 1 + 2 + 3 + 4 + 1 + 2 + 3  + 4  +  1 +  2  +  3 +  4  +

1:52

G|------------------------------------------------------------------|

D|-------------------------------------------------------12---------|

A|--------------------------------/9-9-9-9-9-9-9-9-9-9-9--------9-9-|

E|-5---5-5-5-5-5-5-5-5-5-5-5-5-5-5----------------------------------|

   1 + 2 + 3 + 4 + 1 + 2 + 3 + 4 + 1 + 2 + 3 + 4 + 1 + 2 +  3 + 4 +

G|------------------------------------------------------------------------|

D|-------10-10-10----------------7----------------------------------------|

A|-8-8-8----------8-8-10-8-10-10---8-10-\-------------------------3-2-----|

E|----------------------------------------3-----5-----3-----5---3-----3-0-|

   1 + 2 +  3  +  4 + 1  + 2  +  3 + 4  + 1 + 2 + 3 + 4 + 1 + 2 + 3 + 4 +

Pre Chorus 2:03

G|-----------------------------------------------------------------------|

D|---------------------------------------------0-0---0-10-------10-12----|

A|-5-5---5-5---7-7---7-7-\---------6-6---6-6--------------12-13-------12-|

E|-----------------------------------------------------------------------|

   1 + 2 + 3 + 4 + 1 + 2 + 3 + 4 + 1 + 2 + 3 + 4 + 1 + 2  +  3  +  4  +

G|------------------9-----9---------------------11-9-11------/9-9-7-9----------|

D|------------10------------10-10-10----/-12-12-----------------------9--------|

A|-3---3-3-10----10-----------------------------------------------------10-9-7-|

E|-----------------------------------------------------------------------------|

   1 + 2 + 3  +  4  +  1  + 2  +  3 + 4 + 1  +  2  + 3  + 4 + 1 + 2 + 3 +  4 +

G|----------------------------------|

D|--------0-2-----------------------|

A|-7-9-10-----3---------------------|

E|--------------3-0---------0-0-----|

   1 + 2  + 3 + 4 + 1 + 2 + 3 + 4 + 

Chorus 2:17

G|-----------------------------------------------------------------|

D|-------------------------------------------------/-7-5---7-5-----|

A|-----------------------3-3-3-------------3---3-5-------7-----8-7-|

E|-1---1-1-1-1-1-1-1-1-1-------1-1-3-3-3-3---3---------------------|

   1 + 2 + 3 + 4 + 1 + 2 + 3 + 4 + 1 + 2 + 3 + 4 + 1 + 2 + 3 + 4 +

G|---------------------------------------------------------------------|

D|-----------------------------------------------------------10-9-7----|

A|-----------------------------------7-----------------10-10--------10-|

E|-0-0-0-0-0-0-0-0-0-0-0-0-3-3-3-3-5---5-5-7-5-7-8-8-7-----------------|

   1 + 2 + 3 + 4 + 1 + 2 + 3 + 4 + 1 + 2 + 3 + 4 + 1 + 2  +  3  + 4 +

2:28

G|----------------------------------------------------------------------------|

D|---------------------------------------------9----9-10-12-10-9-10-9---------|

A|----------------/8-8-8-8-8-8-7-8-10-10-10-10---10-------------------10-10---|

E|-1---1-1-1-1-1-1------------------------------------------------------------|

   1 + 2 + 3 + 4 + 1 + 2 + 3 + 4 + 1  +  2  +  3 +  4 +  1  +  2 +  3 +  4  +

G|-----------------------------------------------------------------------------|

D|-------------------------------------------------9-9-10-10----12-10----------|

A|-------7-------------------------0---12-10-12-12-----------10-------12-10-10-|

E|-0---0---0-0-0---0-0-0-0-3-3-3-3---------------------------------------------|

   1 + 2 + 3 + 4 + 1 + 2 + 3 + 4 + 1 + 2  +  3  +  4 + 1  +  2  +  3  +  4  +

2:40

G|----------------------------------------------------------------------|

D|----------------------------------------------------------------------|

A|-----------------8-8-8-8-8-----------------------10-10-8-10-10-8-10-8-|

E|-1---1-1-1-1-1-1-----------8-8---3---3-3-3-3-3-3----------------------|

   1 + 2 + 3 + 4 + 1 + 2 + 3 + 4 + 1 + 2 + 3 + 4 + 1  +  2 +  3  + 4 +

G|----------------------/14-14-14---------------------------------------------|

D|--------------------------------14-14-----------------------------5-7-7-7---|

A|--------------------------------------12-12---12-12---12-12---7-8-----------|

E|-5-5-5-5-5-5-5-5-5-5-5------------------------------------------------------|

   1 + 2 + 3 + 4 + 1 + 2 +  3  +  4  +  1  +  2 +  3 +  4  +  1 + 2 + 3 + 4 +

Bridge 2:51

G|-------------------------------------------------------------------|

D|o-----------------------------------------------------------------o|

A|o-----------------------------------------------------------------o|

E|--1-------------------------------5--------------------------------|

    1 + 2 + 3 + 4 + 1 + 2 + 3 + 4 + 1 + 2 + 3 + 4 + 1 + 2 + 3 + 4 +

3:02

G|-----------------------------------------------------------------|

D|-----------------------------------------------------------------|

A|-----------------3---3---8---8---------------5/7---5-------------|

E|-1-1-1---1---1-------------------5-5-5---5-------------5---5-3---|

   1 + 2 + 3 + 4 + 1 + 2 + 3 + 4 + 1 + 2 + 3 + 4 + 1 + 2 + 3 + 4 +

G|-------------------------------------------------------------9-9---|

D|-----------------------------3---5h7-7-------7-9-10-9-7-10-9-------|

A|-----------------------3---3---------------------------------------|

E|-1---1---1---1---1-1-1---------------------------------------------|

   1 + 2 + 3 + 4 + 1 + 2 + 3 + 4 + 1 + 2 + 3 + 4 + 1  + 2 +  3 + 4 +

3:13

G|-----------------------------------------------------------------|

D|-----------------3-3-3---3---3-------------------3-3-3---3---3---|

A|---------------3-------3-------3---------------3-------3-------3-|

E|-1-----1-----1-------------------1-----1-----1-------------------|

   1 + 2 + 3 + 4 + 1 + 2 + 3 + 4 + 1 + 2 + 3 + 4 + 1 + 2 + 3 + 4 +

G|-----------------------------------------------------------------------------------------|

D|-----------------5-5-5-5-5-5---------------------------0-2-0-----------------------------|

A|---------------5-------------5-5---------------------2-------2---------------------------|

E|-3-----3-----3-------------------0-0---0-0---0-0---0-----------4---5-7-------------------|

   1 + 2 + 3 + 4 + 1 + 2 + 3 + 4 + 1 + 2 + 3 + 4 + 1 + 2 + 3 + 4 + 5 + 6 + 1 + 2 + 3 + 4 + 

Chorus 3:27

G|-----------------------------------------------------------------|

D|---------------------------------------------------/-5---5-------|

A|-----------------8-------------------------------------------5---|

E|-1-----------/-----------8-------3-------------------------------|

   1 + 2 + 3 + 4 + 1 + 2 + 3 + 4 + 1 + 2 + 3 + 4 + 1 + 2 + 3 + 4 +

G|-------------------------------------------------------------12------|

D|---------------------------------------------------/-10---10----10-\-|

A|-----------------7-7-7-7-7-7-7-7-------------------------------------|

E|-0-0-0-0-0-0-0-0-----------------5-5---------------------------------|

   1 + 2 + 3 + 4 + 1 + 2 + 3 + 4 + 1 + 2 + 3 + 4 + 1 + 2  + 3  +  4  +

3:38

G|-----------------------------------------------------------------------|

D|--------------------------------------------------12-10-9-10-9---------|

A|-----------------------3-3---------------3--/10----------------10-10---|

E|-1---1-1-1-1-1-1-1-1-1-------1---3---3-3---3---------------------------|

   1 + 2 + 3 + 4 + 1 + 2 + 3 + 4 + 1 + 2 + 3 + 4 +  1  +  2 +  3 +  4  +

G|---------------------------------------------------------12-14-12-------------------|

D|------------------------------------10-12-12h14p12-14-12----------14-12-10----------|

A|---------------------------------12----------------------------------------12-10-10-|

E|-0---0-0-0-0-0-0-0-0-0-0-3-3-3-3----------------------------------------------------|

   1 + 2 + 3 + 4 + 1 + 2 + 3 + 4 + 1  +  2  +     3  +  4  +  1  +  2  +  3  +  4  +

3:48

G|--------------------------------------------------------12-14-12-------|

D|--------------------------------------------------12-12----------------|

A|-----------------8-8-8-8-8-\-3-----------------10----------------------|

E|-1---1-1-1-1-1-1-----------------3-3-3-3-3-3-3-------------------3-3---|

   1 + 2 + 3 + 4 + 1 + 2 + 3 + 4 + 1 + 2 + 3 + 4 +  1  +  2  +  3  + 4 +

G|----------------------/14-14-------------------------------------------|

D|-------------------------------14----------------------------5-7-7-7-7-|

A|--------------------------------------12-\-----------------7-----------|

E|-5-5-5-5-5-5-5-5-5-5-5-----------------------5-\---5-\---5-------------|

   1 + 2 + 3 + 4 + 1 + 2 +  3  +  4  +  1  + 2 + 3 + 4 + 1 + 2 + 3 + 4 +



simplify

key

chords

key

original:   current:  

transpose  


0

expert

 

Learn the NEW Way to Sing With Freedom, Confidence, and Control

click to watch now