Learn Singing, Guitar, Piano, Bass, Percussion at www.NEATcourses.com
Get Chords at www.NEATchords.com

electronic
reality bass
Chords and lyrics

difficulty: expert



                [Intro]

G|-------------------|--------------------|-------------------|--------------------| (x2)

D|-7--7--------------|--------------------|-7--7--------------|--------------------|

A|-------10--8--8--8-|-10--10--8--7--7--7-|-------10--8--8--8-|-10--10--8--7--7--7-|

E|-------------------|--------------------|-------------------|--------------------|

G|-------------------|--------------------|-------------------|--------------------| (x2)

D|-7--7--------------|--------------------|-7--7--------------|--------------10--9-|

A|-------10--8--8--8-|-10--10--8--7--7--7-|-------10--8--8--8-|-8--8--8--10--------|

E|-------------------|--------------------|-------------------|--------------------|

[Verse 1]

G|-------------------|--------------------|-------------------|--------------------| (x3)

D|-7--7--------------|--------------------|-7--7--------------|--------------10--9-|

A|-------10--8--8--8-|-10--10--8--7--7--7-|-------10--8--8--8-|-8--8--8--10--------|

E|-------------------|--------------------|-------------------|--------------------|

[Interlude]

G|-------------------|--------------------|-------------------|--------------------|

D|-7--7--------------|--------------------|-7--7--------------|--------------10--9-|

A|-------10--8--8--8-|-10--10--8--7--7--7-|-------10--8--8--8-|-8--8--8--10--------|

E|-------------------|--------------------|-------------------|--------------------|

[Chorus]

G|-------------------|--------------------|---------------------|--------------------| (x2)

D|-7--7--------------|--------------------|---------------------|---------------10---|

A|-------10--8--8--8-|-10--10--8--7--7--7-|-8--8--7-------------|-8--8--8--x-10----10|

E|-------------------|--------------------|----------10--10--10-|--------------------|

[Interlude]

G|-------------------|--------------------|-------------------|--------------------|

D|-7--7--------------|--------------------|-7--7--------------|--------------------|

A|-------10--8--8--8-|-10--10--8--7--7--7-|-------10--8--8--8-|-10--10--8--7--7--7-|

E|-------------------|--------------------|-------------------|--------------------|

[Verse 2]

G|-------------------|--------------------|-------------------|--------------------| (x3)

D|-7--7--------------|--------------------|-7--7--------------|--------------------|

A|-------10--8--8--8-|-10--10--8--7--7--7-|-------10--8--8--8-|-10--10--8--7--7--7-|

E|-------------------|--------------------|-------------------|--------------------|

[Interlude]

G|-------------------|--------------------|-------------------|--------------------| (x2)

D|-7--7--------------|--------------------|-7--7--------------|--------------10--9-|

A|-------10--8--8--8-|-10--10--8--7--7--7-|-------10--8--8--8-|-8--8--8--10--------|

E|-------------------|--------------------|-------------------|--------------------|

[Chorus]

G|-------------------|--------------------|---------------------|--------------------| (x4)

D|-7--7--------------|--------------------|---------------------|---------------10---|

A|-------10--8--8--8-|-10--10--8--7--7--7-|-8--8--7-------------|-8--8--8--x-10----10|

E|-------------------|--------------------|----------10--10--10-|--------------------|

[Solo]

G|-------------------|--------------------|-------------------|--------------------| (x6)

D|-7--7--------------|--------------------|-7--7--------------|--------------------|

A|-------10--8--8--8-|-10--10--8--7--7--7-|-------10--8--8--8-|-10--10--8--7--7--7-|

E|-------------------|--------------------|-------------------|--------------------|

[Chorus]

G|-------------------|--------------------|---------------------|--------------------| (x4)

D|-7--7--------------|--------------------|---------------------|---------------10---|

A|-------10--8--8--8-|-10--10--8--7--7--7-|-8--8--7-------------|-8--8--8--x-10----10|

E|-------------------|--------------------|----------10--10--10-|--------------------|

[Outro]

G|-------------------|--------------------|---------------------|--------------------| (x12)

D|-7--7--------------|--------------------|---------------------|---------------10---|

A|-------10--8--8--8-|-10--10--8--7--7--7-|-8--8--7-------------|-8--8--8--x-10----10|

E|-------------------|--------------------|----------10--10--10-|--------------------|



simplify

key

chords

key

original:   current:  

transpose  


0

expert

 

Learn the NEW Way to Sing With Freedom, Confidence, and Control

click to watch now