Learn Singing, Guitar, Piano, Bass, Percussion at www.NEATcourses.com
Get Chords at www.NEATchords.com

electronic
second nature bass
Chords and lyrics

difficulty: expert



                Second Nature

The 7th single released by Electronic in 1997 reaching number 35

in the UK charts. Tab by bass50611. Straight forward song but please

be aware the album version is different to this single version.

Intro:

   .  (8)   .   (8)  .   (8)  .(4)  .(2)

G|-------------------------------------------|

D|-------------------------------------------|

A|----------0--------3--------2-----3----5-5-|

E|-0-----------------------------------------|

Verse 1:             (PLAY THIS x3)

G|-------------------------------|

D|-2-22-2-2-22-2----------0-00-0-|

A|----------------0-00-0---------|

E|-------------------------------|

G|------------------------------|

D|-2-22-2-----------------------|

A|--------2-22-2---------5-55-5-|

E|----------------5-55-5--------|

Chorus:                                                   (PLAY THIS x2)

G|----------------------------------------------------------------------|

D|----------5-4---------------5-4---------------5-4---------------------|

A|-3-3---5-5---7-5---3-3---5-5---7-5---3-3---5-5---7-5---33--55--33--55-|

E|----------------------------------------------------------------------|

Verse :             (PLAY THIS x2)

G|------------------------------------|

D|-2-22-2-2-22-2----------------------|

A|---------------2-22-2--------5-55-5-|

E|----------------------5-55-5--------|

Solo:

G|--------------------------------|

D|--------------------------------|

A|-------------------------5-55-5-|

E|-0---00-0-0-00-0--5-55-5--------|

                                  . (BREAK)

G|----------------------------------|

D|-2-22-2---------------------------|

A|--------2-22-2---------5-55-5---3-|

E|----------------5-55-5------------|

Repeat Chorus:

INTERLUDE:

G|-----------------------------------------------------------------|

D|-----------------------------------------------------------------|

A|-0-0-0-0-00-0-0---3-3-3-3-33-3-3---------------------------------|

E|---------------------------------0-0-0-0-00-0-0---5-5-5-5-55-5-5-|

G|----------------------------------------------------------------|

D|----------------------------------------------------------------|

A|-3-3-3-3-33-3-3-----------------3-3-3-3-33-3-3------------------|

E|----------------5-5-5-5-55-5-5------------------5-5-5-5-55-5-5--|

REPEAT CHORUS TO FADE/END



simplify

key

chords

key

original:   current:  

transpose  


0

expert