Learn Singing, Guitar, Piano, Bass, Percussion at www.NEATcourses.com
Get Chords at www.NEATchords.com

eleventyseven
yesterday's glues
Chords and lyrics

difficulty: expert



----------------------------------------------------------------------------

----------------------------------------------------------------------------

Chords:

   G  Em C  D  A  G5 E5 C5 D5

e--3--7--3--5--0-------------|

B--3--7--5--7--2-------------|

G--4--8--5--7--2-----9--5--7-|

D--5--9--5--7--2--5--9--5--7-|

A--5--7--3--5--0--5--7--3--5-|

E--3--X--X--X--X--3----------|

INTRO: play this once with light distortion

e-3~---7~---5~---3~---]

B-3~---7~---7~---5~---]

G-4~---8~---7~---5~---]

D-5~---9~---7~---5~---]

A-5~---7~---5~---3~---]

E-3~---X~---X~---X~---]

VERSE 1: same as intro, but play 2X "the stars are moving on..."

PRE CHORUS: still light distortion, "you may not remember..."

e-0~---3~---3~---5~---0~---3~---3~---5--5--5--5--5x---]

B-2~---5~---3~---7~---2~---5~---3~---7--7--7--7--7x---]

G-2~---5~---4~---7~---2~---5~---4~---7--7--7--7--7x---]

D-2~---5~---5~---7~---2~---5~---5~---7--7--7--7--7x---]

A-0~---3~---5~---5~---0~---3~---5~---5--5--5--5--5x---]

E-X~---X~---3~---X~---X~---X~---3~---X--X--X--X-------]

CHORUS: Full distortion, "if i could make this go away..."

Play this progression 6X:  ] Then play this:

e--------------------------]----------------------------------------|

B--------------------------]----------------------------------------|

G-5-5-5-------7-7-7-9--9--9]---5-5-5-------7-7-7-7-7-7--5-5-5-------|

D-5-5-5-5-5-5-7-7-7-9--9--9]---5-5-5-5-5-5-7-7-7-7-7-7--5-5-5-5-5-5-|

A-3-3-3-5-5-5-5-5-5-7--7--7]---3-3-3-5-5-5-5-5-5-5-5-5--3-3-3-5-5-5-|

E-------3-3-3------(0)(0)(0)---------3-3-3--------------------3-3-3-|

e------------------------------]

B------------------------------]

G-7-7-7-7-7-7-5-5-5-------7~---]

D-7-7-7-7-7-7-5-5-5-5-5-5-7~---]

A-5-5-5-5-5-5-3-3-3-5-5-5-5~---]

E-------------------3-3-3------]

VERSE 2 - SAME AS VERSE 1

PRE CHORUS - same as first time

CHORUS 2 - Same as chorus 1

OUTRO - basically the same chords as the second part of the chorus

ENDING - Just play the beginning of Verse 1, he just sings the first line

END ON: e-5~

        B-7~

        G-7~

        D-7~

        A-5~

        E---

NOTE: I will tab out the riff in the outro (and break between the chorus and verse 2) in

few weeks when I get more time.

Rock on, this is a great song, nice and simple

God Bless



simplify

key

chords

key

original:   current:  

transpose  


G

Em

C

D

A

G5

E5

C5

D5

None

expert