Learn Singing, Guitar, Piano, Bass, Percussion at www.NEATcourses.com
Get Chords at www.NEATchords.com

elle varner
only wanna give it to you bass
Chords and lyrics

difficulty: expert



                

G|----------------------------------------------------------------|

D|3-------3---3-2---------2-----------------------------------0---|

A|------3---3-----------3-----3---0-------0---0-3-------0-3-------|

E|--------------------------------------3---3---------------------|

G|----------------------------------------------------------------|

D|3-------3---3-2---------2-----------------------------------0---|

A|------3---3-----------3-----3---0---0---2---3-------2---3-------|

E|----------------------------------------------------------------|

variation before first chorus (0:38)

G|3-------3-----2-------------------------------------------------|

D|------------3---------------------------------------------------|

A|--------------------------------0-------0-----3-----------------|

E|--------------------------------------------3-------------------|

G|--------3-----2-------------------------------------------------|

D|------------3---------------------------------0-----------------|

A|1-------------------------------0-------0---3-------------------|

E|----------------------------------------------------4---3---2---|

(roughly) what is played after second chorus (1:55)

G|------4---------------------------------------------------------|

D|3-----------2-----------------------7---------------------------|

A|----------------------------------------7---5-----------0---1---|

E|----------------------2-3---4---5-------------------------------|

G|------4-------------------------------5-------------------------|

D|------------2-------------------------------5-------------------|

A|2---------------------3-2---1---0-------------------------------|

E|--------------------------------------------------------3---2---|

G|----------------------------------------------------------------|

D|--------3---2-----------------------7---------------------------|

A|----3-----------------------------------7---5-------------------|

E|1---------------------2-3---4---5-----------------------3---2---|

G|----------------------------------------11-12-13----------------|

D|----------2-3---------------------------------------------------|

A|--------3-------------------------------------------------------|



simplify

key

chords

key

original:   current:  

transpose  


0

expert

 

Learn the NEW Way to Sing With Freedom, Confidence, and Control

click to watch now