Learn Singing, Guitar, Piano, Bass, Percussion at www.NEATcourses.com
Get Chords at www.NEATchords.com

elvis depressedly
rock n roll
Chords and lyrics

difficulty: intermediate



                Tuning: standard

               C                Em

Theres no such thing as rock n roll

         F    G      C

Bless my rep__tilian soul

      C           Em

Jesus died on the cross

   F       G       C

So I could quit my job

     C              Em

Your pain is poison grace

       F     G    C

What a shame mary jane

  C               Em

Believe and be fulfilled

          F     G    C

The prophecy of diet pills

Synth solos:

           C               Em                F          G          C

e|-------------------------7----3---------------------------------------------|

B|---5---------------5-----------------5------------------------5--5----------|

G|---------5------------5-----------------5--4---2------4---------------------|

D|----------------------------------------------------------------------------|

A|----------------------------------------------------------------------------|

E|----------------------------------------------------------------------------|

 |                                                                            | x2

e|---------0---------------3-----------------5----------3---------------------|

B|----------------------------------------------------------------5-----------|

G|-0-2-4-2---------0-2-4-2-----------0-2-4-2----------------------------------|

D|----------------------------------------------------------------------------|

A|----------------------------------------------------------------------------|



simplify

key

chords

key

original:   current:  

transpose  


C

Em

F

G

1

3

4

5

0

intermediate

 

Learn the NEW Way to Sing With Freedom, Confidence, and Control

click to watch now