Learn Singing, Guitar, Piano, Bass, Percussion at www.NEATcourses.com
Get Chords at www.NEATchords.com

emotions
a long way to go bass
Chords and lyrics

difficulty: expert



                Intro

|-------------|-------------|-------------|-------------|

|-------------|-------------|-------------|-------------|

|-4---4-4---4-|--4--4-4---x-|-4---4-4---4-|--4--4-4---x-|

|-------------|-------------|-------------|-------------|

|-------------|------------|-------------|-------------|

|-------------|------------|-------------|------6------|

|-2---2-2---2-|--2--2-2----|-1-1--1------|----6---6----|

|-------------|------------|----------4--|----------4--|

Verse

|------------|--------------|-------------|--------------|

|------------|--------------|-----3-------|--------------|

|-4---4-4----|-4---4-4------|-------3-----|-1-----1-3--4-|

|------------|---------2--2-|-1---------1-|-----1--------|

|-------------|--------------|----3-1-------|------------|

|-1---1-1---1-|-3------------|-1------------|------------|

|-------------|-------1--3-4-|-----------4--|---2---4----|

|-------------|-----1--------|---------4----|----------4-|

|------------|--------------|-------------|--------------|

|------------|--------------|-----3-------|--------------|

|-4---4-4----|-4---4-4------|-------3-----|-1-----1-3--4-|

|------------|---------2--2-|-1---------1-|-----1--------|

|-------------|--------------|----3-1-------|---------1----|

|-1---1-1---1-|-3------------|-1------------|-------3----3-|

|-------------|-------1--3-4-|-----------4--|---4-4--------|

|-------------|-----1--------|---------4----|--------------|

Chorus

|-------------|------------|--------------|--------------|

|-----------1-|-3----------|-1-3--4--5--6-|-h6-----------|

|-1---1-1-----|------------|--------------|------6-------|

|-------------|-----1-1----|--------------|--------4--1--|

|--------------|---------3----|-----3-1-----|----------1----|

|--------------|-1---1-1------|-1-----------|--------3----3-|

|-1---1-1-3--4-|-----------1--|-------------|-4--4-4--------|

|--------------|--------------|-----------4-|---------------|

|-------------|------------|--------------|--------------|

|-----------1-|-3----------|-1-3--4--5--6-|-h6-----------|

|-1---1-1-----|-------1--1-|--------------|--------2--h2-|

|-------------|------------|--------------|--------------|

|-------------|------------|---------------|

|-----------3-|-1---1-1----|-1-3-4-6-------|

|-1---1-1-----|------------|---------------|

|-------------|------------|----------4--4-|

|------------|-------------|-------------|-----4-3--1----|

|------------|-------------|-------------|---4-----------|

|-4---4-4----|-4---4-4-----|-4---4-4-----|-2-------------|

|------------|----------4--|-----------2-|-------------4-|

Verse

|------------|--------------|-------------|--------------|

|------------|--------------|-----3-------|--------------|

|-4---4-4----|-4---4-4------|-------3-----|-1-----1-3--4-|

|------------|---------2--2-|-1---------1-|-----1--------|

|-------------|--------------|----3-1-------|------------|

|-1---1-1---1-|-3------------|-1------------|------------|

|-------------|-------1--3-4-|-----------4--|---2---4----|

|-------------|-----1--------|---------4----|----------4-|

|-------------|--------------|-------------|--------------|

|-------------|--------------|-----3-------|--------------|

|-4---4-4-----|-4---4-4------|-------3-----|-1-----1-3--4-|

|-----------4-|---------2--2-|-1---------1-|-----1--------|

|-------------|--------------|----3-1-------|---------1----|

|-1---1-1---1-|-3------------|-1------------|-------3----3-|

|-------------|-------1--3-4-|-----------4--|---4-4--------|

|-------------|-----1--------|---------4----|--------------|

Chorus

|---------------|------------|--------------|--------------|

|----------x1-2-|-3----------|-1-3--4--5--6-|-h6-----------|

|-1---1-1*------|------------|--------------|------6-------|

|---------------|-----1-1----|--------------|--------4--1--|

|--------------|---------3----|-----3-1-----|----------1----|

|--------------|-1---1-1------|-1-----------|--------3----3-|

|-1---1-1-3--4-|-----------1--|-------------|-4--4-4--------|

|--------------|--------------|-----------4-|---------------|

|-------------|------------|--------------|--------------|

|-----------1-|-3----------|-1-3--4--5--6-|-h6-----------|

|-1---1-1-----|-------1--1-|--------------|--------2--h2-|

|-------------|------------|--------------|--------------|

|-------------|------------|---------------|----------1----|

|-----------3-|-1---1-1----|-1-3-4-6-------|--------3----3-|

|-1---1-1-----|------------|---------------|-4--4-4--------|

|-------------|------------|----------4--4-|---------------|

|-------------|-------------|--------------|-------------|

|-----------1-|-3-----------|-1-3--4--5--6-|-h6----------|

|-1---1-1-----|-------------|--------------|--------2--2-|

|-------------|-----1-1---1-|--------------|-------------|

|-------------|-------------|-------------|-------------|

|-----------3-|-1---1-1-----|-1---1-------|-------------|

|-1---1-1-----|-----------1-|-------------|-4--4---2--2-|

|-------------|-------------|-------4---4-|-------------|

Breakdown

|-------------|---------|---------------|---------|

|-----------1-|---------|-1-3-4-6-------|---------|

|-1-----3-4---|---------|-------------4-|---------|

|-------------|---------|----------4----|---------|

|-------------|---------|---------------|----------------|

|-----------1-|---------|-1-3-4-6-------|--15-13\--------|

|-1-----3-4---|---------|-------------4-|-----------2--2-|

|-------------|---------|----------4----|----------------|

|-------------|---------|---------------|---------|

|-----------1-|---------|-1-3-4-6-------|---------|

|-1-----3-4---|---------|-------------4-|---------|

|-------------|---------|----------4----|---------|

|-------------|---------|---------------|--p6----------|

|-----------1-|---------|-1-3-4-6-------|--------------|

|-1-----3-4---|---------|-------------4-|-----4---2--2-|

|-------------|---------|----------4----|--------------|

|-------------|---------|---------------|--------------|

|-----------1-|---------|-1-3-4-6-------|--------------|

|-1-----3-4---|---------|-------------4-|---16\---2--2-|

|-------------|---------|----------4----|--------------|

|-------------|---------|---------------|--15-13\--------|

|-----------1-|---------|-1-3-4-6-------|----------------|

|-1-----3-4---|---------|-------------4-|-----------2--2-|

|-------------|---------|----------4----|----------------|

|-------------|---------|---------------|--p6----------|

|-----------1-|---------|-1-3-4-6-------|--------------|

|-1-----3-4---|---------|-------------4-|-----4---2--2-|

|-------------|---------|----------4----|--------------|

|-------------|---------|---------------|-----------|

|-----------1-|---------|-1-3-4-6-------|-----------|

|-1-----3-4---|---------|-------------4-|------2--2-|

|-------------|---------|----------4----|-----------|

|-------------|---------|---------------|----------------|

|-----------1-|---------|-1-3-4-6--6----|--15-13\--------|

|-1-----3-4---|---------|-------------4-|-----------2--2-|

|-------------|---------|---------------|----------------|

||--------------|---------|---------------|------------||

||o-----------1-|---------|-1-3-4-6-------|-----------o||

||o-1-----3-4---|---------|-------------4-|------2--2-o||

||--------------|---------|----------4----|------------|| fade



simplify

key

chords

key

original:   current:  

transpose  


0

expert

 

Learn the NEW Way to Sing With Freedom, Confidence, and Control

click to watch now