Learn Singing, Guitar, Piano, Bass, Percussion at www.NEATcourses.com
Get Chords at www.NEATchords.com

enanitos verdes
el guerrero en vivo
Chords and lyrics

difficulty: expert



                Intro

              b-7                e-7

|---5-7/9-7-5----7-----5-7/9-7-5-3------3------------|

|-7-----------7------7-------------------------------|

|---6-7/9-7-6----------6-7/9-7-6-4----0-----0---0----|

|-7-----------7------7--------------------4---2---0--|

|----------------------------------------------------|

|----------------------------------------------------|

           AM                             b-7

|-3-5-7/9-7-5-3-----3-----3---3-5-7/9-7-5----7---------9~-|

|-----------------------------------------7-----7------7~-|

|-4-6-7/9-7-6-4---------------4-6-7/9-7-6---------7----7~-|

|----------------5-----5------------------7------------7~-|

|---------------------------------------------------------|

|---------------------------------------------------------|

Verso

  b-7             e-7

|------------------10/12-10------------|

|------------------10/12-10--8/10--8~--|

|---7-9-9b11-7~~~------------7/9---7~--|

|-9------------------------------------|

|--------------------------------------|

|--------------------------------------|

  AM                           b-7

|-5---5-----3------2----7---------------------------------|

|-5---------------------7---------------------------------|

|-6-----6\4----4\2------7----7-9b11r9p7-9--7--------------|

|-7---------------------7--------------------9-7----------|

|-7---------------------9------------------------9\7--5---|

|-5---------------------7-------------------------------7-|

 b-7                            e-7

|-------------------------------------------|

|-7---4/5-5--3-3--5-------7--5-5--3-3--5-5--|

|-7---5/6-6--4-4--6-------7--6-6--4-4--6-6--|

|-----------------------7-------------------|

|-------------------------------------------|

|-------------------------------------------|

 AM                                              b-7

|-5--5-----7==/9---------10-------12/14-------12-----10---9\7-7-|

|-5-------------------------------------------------------------|

|-6----6/7----(9)---9/11----11/12---(14)---12----11-----9-----7~|

|-7-------------------------------------------------------------|

|-7-------------------------------------------------------------|

|-5-------------------------------------------------------------|

Coro

 e-7           AM      b-7

|-7--------------5---------------------------------|

|-8--8--8-8------5---------------------------------|

|-7--7--7-7------6--------7-9-9b11-7---------------|

|-9--9--9-9------7------9-------------9-7----------|

|-7--------------7------------------------9\7-5----|

|----------------5------------------------------7--|

 e-7           AM         b-9

|----------------5-------9-9-9-9--9-9-9-9--9-9-9-9--9-9-9--|

|-8--8h10-8------5-------7-7-7-7--7-7-7-7--7-7-7-7--7-7-7--|

|-7---------7----6-------7-7-7-7--7-7-7-7--7-7-7-7--7-7-7--|

|-9--------------7-------7-7-7-7--7-7-7-7--7-7-7-7--7-7-7--|

|-7--------------7-----------------------------------------|

|----------------5-----------------------------------------|

 e-7           AM      b-7

|-7--------------5-------------------------|

|-8--8--8-8------5-------------------------|

|-7--7--7-7------6------9-9b11r9p7-9-7-----|

|-9--9--9-9------7---------------------9\--|

|-7--------------7-------------------------|

|----------------5-------------------------|

 e-7           AM      b-7

|----------------5-------------------------|

|-8--8h10-8------5------7-9b11r9p7-9-7-----|

|-7---------7----6------7-9b11r9p7-9-7-----|

|-9--------------7---------------------9\--|

|-7--------------7-------------------------|

|----------------5-------------------------|

Solo de Teclado

                b-7                    e-7

|-----------10----------------------14h15--14--------------------------|

|----10h12-----10/12~~--------15-17-----------15/17--------------------|

|-11--------------------14-16------------------------14h16--14h16~-16--|

|----------------------------------------------------------------------|

|----------------------------------------------------------------------|

|----------------------------------------------------------------------|

AM

|-------12----------------------------------------|

|----12----12h14~--12-----------------------------|

|-14------------------9h11--9---9----9p7-----7----|

|----------------------------------------9-7---9--|

|-------------------------------------------------|

|-------------------------------------------------|

b-7

|------------------7--------10p7-------12p10-------14p12--------|

|-7-------10p7-------10p7--------10-7--------12-10-------15-12--|

|---9p7--------9-7--------9-------------------------------------|

|-------9-------------------------------------------------------|

|---------------------------------------------------------------|

|---------------------------------------------------------------|

|-14h17p14h17p14h17p14h17p14h17-13h17p13h17-12h15p12h15-10---|

|------------------------------------------------------------|

|------------------------------------------------------------|

|------------------------------------------------------------|

|------------------------------------------------------------|

|------------------------------------------------------------|

                                e-7

|-12---12---12--10----10------------------------14-17-14-15-17-17/19--|

|------------------12----12~-----------------16-----------------------|

|--------------------------------14-------16--------------------------|

|-----------------------------17----16-17-----------------------------|

|---------------------------------------------------------------------|

|---------------------------------------------------------------------|

                                            AM                    b-7

|-------17----15----14-----12----10-9---9---5---7--9--10--9--7--5--7---|

|-15\14----------------------------------------------------------------|

|----------16----14-----12----11----9---9---6---7--9--11--9--7--6--7---|

|----------------------------------------------------------------------|

|----------------------------------------------------------------------|

|----------------------------------------------------------------------|

Verso

 b-7             e-7

|------------------10/12-10------------|

|---7-9-9b11-7~----10/12-10--8/10--8~--|

|-9-7-9-9b11-7~--------------7/9---7~--|

|-9------------------------------------|

|--------------------------------------|

|--------------------------------------|

  AM                           b-7

|-5---5-----3------2----7-----------7-----------|

|-5---------------------7---------7-------------|

|-6-----6\4----4\2------7----7-9--------7-----7-|

|-7---------------------7-----------------7h9---|

|-7---------------------9-----------------------|

|-5---------------------7-----------------------|

 b-7                           e-7

|------------------------------------------|

|-7---4/5-5--3-3--5-5----7--5-5--3-3--5-5--|

|-7---5/6-6--4-4--6-6----7--6-6--4-4--6-6--|

|------------------------------------------|

|------------------------------------------|

|------------------------------------------|

 AM                                             b-7

|-5--5-----7==/9---------10-------12/14-------12-----10---9\7-7~|

|-5-------------------------------------------------------------|

|-6----6/7----(9)---9/11----11/12---(14)---12----11-----9-----7~|

|-7-------------------------------------------------------------|

|-7-------------------------------------------------------------|

|-5-------------------------------------------------------------|

Coro

 e-7           AM      b-7

|-7--------------5--------------------------------|

|-8--8--8-8------5--------------------------------|

|-7--7--7-7------6--------7-9-9b11-7--------------|

|-9--9--9-9------7------9-------------9-7---------|

|-7--------------7------------------------9\7-5---|

|----------------5------------------------------7-|

 e-7           AM         b-9

|----------------5-------9-9-9-9--9-9-9-9--9-9-9-9--9-9-9--|

|-8---7h8-7------5-------7-7-7-7--7-7-7-7--7-7-7-7--7-7-7--|

|-7---------7----6-------7-7-7-7--7-7-7-7--7-7-7-7--7-7-7--|

|-9--------------7-------7-7-7-7--7-7-7-7--7-7-7-7--7-7-7--|

|-7--------------7-----------------------------------------|

|----------------5-----------------------------------------|

 e-7           AM           b-7

|-7--------------5----------------------------------|

|-8--8--8-8------5-----------10-10--7---------------|

|-7--7--7-7------6--6h7-6----11-11--7---------------|

|-9--9--9-9------7--------------------9--7----------|

|-7--------------7-------------------------9\7-5----|

|----------------5-------------------------------7--|

 e-7           AM        b-7

|----------------5--5----------------|

|-8--8h10-8------5----5--------------|

|-7---------7----6------------7h9-7--|

|-9--------------7----------9--------|

|-7--------------7-------------------|

|----------------5-------------------|

Outro

              b-7                  e-7

|---5-7/9-7-5----7--------5-7/9-7-5-3------3------------|

|-7-----------7----7----7-------------------------------|

|---6-7/9-7-6--------7----6-7/9-7-6-4----0-----0---0----|

|-7-----------7---------7--------------------4---2---0--|

|-------------------------------------------------------|

|-------------------------------------------------------|

             AM                          b-7

|-3-5-7/9-7-5-3-----3-----3---3-5-7/9-7-5----7---------|

|-----------------------------------------7-----7------|

|-4-6-7/9-7-6-4---------------4-6-7/9-7-6---------7--7-|

|----------------5-----5------------------7------------|

|------------------------------------------------------|

|------------------------------------------------------|

                  b-7

|---5-7/9-10-12-12/14--14------14----14----14---12----12--|

|-7-------------------------------------------------------|

|---6-7/9-11-12-12/14--14---14----14----14---12----12-----|

|-7-------------------------------------------------------|

|---------------------------------------------------------|

|---------------------------------------------------------|

 e-7                          AM

|-10----10---9\7-7----7-9-10-12/14-12-10-12---12/14--12-10-12/14-12-10--|

|-----------------------------------------------------------------------|

|----11----9-----7--7---9-11-12/14-12-11-12---12/14--12-11-12/14-12-11--|

|-----------------------------------------------------------------------|

|-----------------------------------------------------------------------|

|-----------------------------------------------------------------------|

     b-7

|-7/9-7~---7---------|

|-----------7--------|

|-7/9-7~-----7-------|

|-------------7------|

|--------------9-----|

|---------------7----|



simplify

key

chords

key

original:   current:  

transpose  


0

expert