Learn Singing, Guitar, Piano, Bass, Percussion at www.NEATcourses.com
Get Chords at www.NEATchords.com

ennio morricone
chi mai
Chords and lyrics

difficulty: expert



Hey! This is the first time I submit something here so apologizes if some kind of

is omitted.

to the guitar on the second screen.

You need to play a little with string bending

//////

Saludos! Esta es la primera vez que publico algo aquí, asi que disculpenme si algun

de normativa es omitida.

a la guitarra en la segunda pantalla.

Tienen que jugar un poco con el bending de cuerdas.

e|-----9----9----9----7----5----7---|-------------------------------------|

B|----------------------------------|---------10---7----9----10---10------|

G|----------------------------------|----------------------------------7--|

D|----------------------------------|-------------------------------------|

A|----------------------------------|-------------------------------------|

E|----------------------------------|-------------------------------------|

e|----------------------------------|----------------------9---7----9-----|

B|----9--7--9-----------------------|----7--5--7--------------------------|

G|----------------------------------|-------------------------------------|

D|--------------11------------------|--------------9----------------------|

A|----------------------------------|-------------------------------------|

E|----------------------------------|-------------------------------------|

e|-----9----9----9----7----5----7---|--------14---------------------------|

B|----------------------------------|---10------------9---10--------------|

G|----------------------------------|----------------------------7--------|

D|----------------------------------|-------------------------------------|

A|----------------------------------|-------------------------------------|

E|----------------------------------|-------------------------------------|

e|----------------------------------|-------------------------------------|

B|---9-7-9--9-7-9--9-7-9--9---------|-7--7-5-7--7-5-7--7-5-7--------------|

G|----------------------------------|-------------------------------------|

D|---------------------------11-----|--------------------------9----------|

A|----------------------------------|-------------------------------------|

E|----------------------------------|-------------------------------------|

e|-------------------------------14-|

B|-6--6-4-6--6-4-6--6-4-6---7-------|

G|----------------------------------|

D|----------------------------------|

A|----------------------------------|

E|----------------------------------|

e|-----------------------------------|----------------------------------|

B|-----------------------------------|---------???-------???------------|

G|-----------------------------------|---------???-------???------------|

D|-11--9--11--12--9-9-8-9---7--6--7--|---------???-------???------------|

A|-----------------------------------|---------???-------???------------|

E|-----------------------------------|----------------------------------|

e|-----------------------------------|----------------------------------|

B|-----------------------------------|----------------------------------|

G|-11--9--11--12--9-----7--6--7------|-------------11--13------8---10---|

D|-----------------------------------|--11--9--11-----------------------|

A|-----------------------------------|----------------------------------|

E|-----------------------------------|----------------------------------|

e|-------------9---7-----------------|

B|--7-9-10-------------7---9---------|

G|-----------------------------------|

D|-----------------------------------|

A|-----------------------------------|

E|-----------------------------------|

e|-----9----9----9----7----5----7---|--------14---------------------------|

B|----------------------------------|---10------------9---10--------------|

G|----------------------------------|----------------------------7--------|

D|----------------------------------|-------------------------------------|

A|----------------------------------|-------------------------------------|

E|----------------------------------|-------------------------------------|

e|----------------------------------|-------------------------------------|

B|---9-7-9--9-7-9--9-7-9--9---------|-7--7-5-7--7-5-7--7-5-7--------------|

G|----------------------------------|-------------------------------------|

D|---------------------------11-----|-------------------------9-----------|

A|----------------------------------|-------------------------------------|

E|----------------------------------|-------------------------------------|

e|-------------------------------14-|

B|-6--6-4-6--6-4-6--6-4-6---7-------|

G|----------------------------------|

D|----------------------------------|

A|----------------------------------|

E|----------------------------------|

Thanks.

//

Si alguien tiene éxito con la parte ??? porfavor envienme un email a

Gracias.



simplify

key

chords

key

original:   current:  

transpose  


0

expert