Learn Singing, Guitar, Piano, Bass, Percussion at www.NEATcourses.com
Get Chords at www.NEATchords.com

eruption
one way ticket bass
Chords and lyrics

difficulty: expert



                [Intro] - 0:17

G|-------------------------------6\-|-------------------------------11\-|

D|----------------------------------|-----------------------------------|

A|-4-4---2--4-4---2--4-4---2-4------|-9-9---7--9-9---7--9-9---7-9-------|

E|-----4--------4--------4----------|-----9--------9--------9-----------|

G|-----------------------------------------13\-|-------------------------------6\--|

D|---------------------------------------------|-----------------------------------|

A|-11-11----9--11-11----9--11-11----9-11-------|-4-4---2--4-4---2--4-4---2-4-------|

E|-------11----------11----------11------------|-----4--------4--------4-----------|

[Verse] - Play the same as Intro

but in the end of Verse 1, we play

G|--------------------------------|

D|--------------------------------|

A|-4-4---2--4-4---2--4-4---2-4--2-|

E|-----4--------4--------4--------|

[Chorus]

G|-------|-----------|--------------------|-------------|-----------|-------------|

D|-----9-|-7---------|----------11-12-13--|--11---------|--------10-|-11----11----|

A|---9---|---9-7---7-|-9-10-11------------|-----11------|-9---11----|----11----11-|

E|-7-----|-------7---|--------------------|--------12-9-|---9-------|-------------|

G|------------------|-----------------|

D|---13-13----13-13-|-18--16--14--13--|

A|------------------|-----------------|

E|-11-------11------|-----------------|

[Hook + Verse + Keyboard Solo] - Play the same as Intro

G|-------------------------------6\-|-------------------------------11\-|

D|----------------------------------|-----------------------------------|

A|-4-4---2--4-4---2--4-4---2-4------|-9-9---7--9-9---7--9-9---7-9-------|

E|-----4--------4--------4----------|-----9--------9--------9-----------|

G|-----------------------------------------13\-|-------------------------------6\--|

D|---------------------------------------------|-----------------------------------|

A|-11-11----9--11-11----9--11-11----9-11-------|-4-4---2--4-4---2--4-4---2-4-------|

E|-------11----------11----------11------------|-----4--------4--------4-----------|

[Chorus]

G|-------|-----------|--------------------|-------------|-----------|-------------|

D|-----9-|-7---------|----------11-12-13--|--11---------|--------10-|-11----11----|

A|---9---|---9-7---7-|-9-10-11------------|-----11------|-9---11----|----11----11-|

E|-7-----|-------7---|--------------------|--------12-9-|---9-------|-------------|

G|------------------|-----------------|

D|---13-13----13-13-|-18--16--14--13--|

A|------------------|-----------------|

E|-11-------11------|-----------------|

[Hook + Verse] - Play the same as Intro

G|-------------------------------6\-|-------------------------------11\-|

D|----------------------------------|-----------------------------------|

A|-4-4---2--4-4---2--4-4---2-4------|-9-9---7--9-9---7--9-9---7-9-------|

E|-----4--------4--------4----------|-----9--------9--------9-----------|

G|-----------------------------------------13\-|-------------------------------6\--|

D|---------------------------------------------|-----------------------------------|

A|-11-11----9--11-11----9--11-11----9-11-------|-4-4---2--4-4---2--4-4---2-4-------|

E|-------11----------11----------11------------|-----4--------4--------4-----------|

[Ending] - 2:52 till the end of the song

G|-----------------------------------------13\-|-------------------------------6\--|

D|---------------------------------------------|-----------------------------------|

A|-11-11----9--11-11----9--11-11----9-11-------|-4-4---2--4-4---2--4-4---2-4-------|



simplify

key

chords

key

original:   current:  

transpose  


0

expert