Learn Singing, Guitar, Piano, Bass, Percussion at www.NEATcourses.com
Get Chords at www.NEATchords.com

esperanza spalding
good lava bass
Chords and lyrics

difficulty: expert



                MAIN RIFF

G|-7-----|-3h6-----|---8~~-|

D|---3/5-|---------|-------|

A|-------|-----4/6-|-6-----|

E|-------|---------|-------|

MAIN RIFF (VARIATION)

G|-8p7-----|-6\------|

D|-----3-5-|---------|

A|---------|----4-6~-|

E|---------|---------|

PRE-CHORUS / VERSE 2

G|-7-----|--------|-----------|

D|---3-5-|--------|-----------|

A|-------|-2~~3~~-|-5-6-7-8~~-|

E|-------|--------|-----------|

G|---8---6---------|-----5---3-----|

D|-----------------|---------------|

A|-6---6-----------|-2-3---3-------|

E|---------3-4-5-6-|---------------|

[Chorus 1]

G|----------|

D|-------3~-|

A|---2-3----|

E|-3--------|

[Chorus 2]

G|---------|---5-------8~-|-7-----|-3h6-----|---8~~-|

D|---------|--------------|---3/5-|---------|-------|

A|---1~-2~-|-3---3/6-6----|-------|-----4/6-|-6-----|

E|-3~------|--------------|-------|---------|-------|

[Solo]

G|-----8~~~-|

D|----------|

A|-6-6------|

E|----------|



simplify

key

chords

key

original:   current:  

transpose  


0

expert