Learn Singing, Guitar, Piano, Bass, Percussion at www.NEATcourses.com
Get Chords at www.NEATchords.com

estrella
martyr
Chords and lyrics

difficulty: expert



                Intro:

F#m - G#m - C#m

e|---------------------------------------------------------------------------|

B|---------------------------------------------------------------------------|

G|---------------------------------------------------------------------------|

D|---------------------------------------------------------------------------|

A|------0-tap4----6-/-7-/-6-/-4p-0-------------------------------------------|

E|---------------------------------------------------------------------------|

F#m - G#m - C#m

e|---------------------------------------------------------------------------|

B|---------------------------------------------------------------------------|

G|---------------------------------------------------------------------------|

D|---------------------------------------------------------------------------|

A|--4--4--2--2---------------------------------------------------------------|

E|---------------4--4--2--2--------------------------------------------------|

F#m - G#m - C#m

e|---------------------------------------------------------------------------|

B|---------------------------------------------------------------------------|

G|---------------------------------------------------------------------------|

D|---------------------------------------------------------------------------|

A|------0-tap4----6-/-7-/-6-/-4----------------------------------------------|

E|---------------------------------------------------------------------------|

F#m - G#m - C#m

Verse 1 :

A                         Ab

Di na maalala mga sandaling

              C#      C#

Na kasama kita

A                         Ab

Sayong piling para ako ay

              C#      C#

Laging magisa

Refrain: (Gumamit kayo ng Octave, root + 8th note)

                     E

e|X------------------------------------------|

B|X------------------------------------------|

G|-------------------9-----------------------|

D|X------------------------------------------|

A|-------------------7-----------------------|

E|X------------------------------------------|

                     F#

e|X------------------------------------------|

B|X------------------------------------------|

G|-------------------11----------------------|

D|X------------------------------------------|

A|-------------------9-----------------------|

E|X------------------------------------------|

                     Eb

e|X------------------------------------------|

B|X------------------------------------------|

G|-------------------8-----------------------|

D|X------------------------------------------|

A|-------------------6-----------------------|

E|X------------------------------------------|

E                     F#

Kahit ano pa ang gawin

              E

Kahit ano pa ang sabihin

      Eb                  E

Tapos na tapos na ko sayo

                      F#

Kahit ano pa ang gawin

                  E

Kahit ano pa ang sabihin

            Eb-E 

Tapos na tapos na

Chorus: (Enjoy to HEHEHE)

A                                Ab          

Ngunit sa twing ika'y nasisilayan

            F#m                    E 

Bumabalik lahat ng aking nararamdaman

A                         Ab   

Ano ba ang dahilan ba't hindi ko malaman

     F#m                  E           A    Ab    

Bakit ako masayang masayang nasasaktan

F#m                    E - E (higher E 7th fret A string)

MARTYR sa pag-ibig mo.

Verse2

A                        Ab

Lahat ng bagay nawalan na ng saysay

            C#                C#

Oras na lamang ang hinihintay

A                         Ab

Nagising na ko sa katotohanan na dapat

       C#                   C#

Ka ng iwasan, dapat ka ng iwasan.

Refrain:

E                     F#

Kahit ano pa ang gawin

              E

Kahit ano pa ang sabihin

      Eb                  E

Tapos na tapos na ko sayo

                      F#

Kahit ano pa ang gawin

                  E

Kahit ano pa ang sabihin

            Eb-E 

Tapos na tapos na

Chorus:

A                                Ab          

Ngunit sa twing ika'y nasisilayan

            F#m                    E 

Bumabalik lahat ng aking nararamdaman

A                         Ab   

Ano ba ang dahilan ba't hindi ko malaman

     F#m                  E           A    Ab    

Bakit ako masayang masayang nasasaktan (ngunit, ngu-ngunit, ngunit, ngu-ngunit)

F#m                    E

MARTYR sa pag-ibig mo

A      Ab

Ohhhhh ohhhhhhh

F#m                   E

Martyr sa pag-ibig mo

A      Ab

Ohhhhh ohhhhhhh (martyr sa pag-ibig mo! martyr sa pag-ibig mo!)

F#m                   E

Martyr sa pag-ibig mo

A      Ab

Ohhhhh ohhhhhhh (martyr sa pag-ibig mo! martyr sa pag-ibig mo!)

F#m                 E - E (higher E 7th fret A string)



simplify

key

chords

key

original:   current:  

transpose  


A

Ab

C#

E

F#

Eb

F#m

None

expert