Learn Singing, Guitar, Piano, Bass, Percussion at www.NEATcourses.com
Get Chords at www.NEATchords.com

evan and jaron
from my head to my heart
Chords and lyrics

difficulty: expert



-------------------------------------------------------------------------------

             From My Head to My Heart: Evan and Jaron

-------------------------------------------------------------------------------

intro

e|------5---------------------------------5--------------------------------|

B|-----------------------8-7------------------------------8-7-5-----5/7----|

G|-5/7-------------5/7------------5/7---------------5/7---------5----------|

D|-------------------------------------------------------------------------|

A|-------------------------------------------------------------------------|

E|-------------------------------------------------------------------------|

1st verse

e|------5------------------------------------------------------------------|

B|-----------------------8-7-5---------------------------------------------|

G|-5/7-------------5/7-----------7-4---------------------------------------|

D|-------------------------------------------------------------------------|

A|-------------------------------------------------------------------------|

E|-------------------------------------------------------------------------|

e|------5----------------/7---------/7----------5------7----6-------------|

B|---------------------------/7----------------------/7-------------------|

G|-5/7-------------/7-----------------------------------------------------|

D|------------------------------------------------------------------------|

A|------------------------------------------------------------------------|

E|------------------------------------------------------------------------|

| /  slide up

| \  slide down

| h  hammer-on

| p  pull-off

| ~  vibrato

| +  harmonic

| x  Mute note

===============================================================================

G5                             D5

Once again I just can't get it straight

G5                           D5

Wondering if wandering is my fate

Bm                     A

But don't lose hope in me quite yet

       G                   Gm

'cause help must be on the way, any day

        D          F#

              G                         E

can't seem to find a way they're so far apart

         D                  F#

It's not you, it's not your fault

           G                       E

You've got everything I could ever want

           D                      F#

And you've always understood my intentions are good

          G                      E

and we've been so close from the start

        D                           A

but the furthest distance I've ever known is

        G          D

I feel the distance standing here next to you

I don't want to keep you waiting, but I've been waiting too

Some day if I get there and you still want me too

we can see it through

can't seem to find a way they're so far apart

It's not you, it's not your fault

You've got everything I could ever want

And you've always understood my intentions are good

and we've been so close from the start

but the furthest distance I've ever known is

Furthest distance I've ever known is

My head to my heart

Bridge

        Bm         F#

              A                          E

can't seem to find a way they're so far apart

         G                                       F#

it's not you, you've got everything I could ever want

can't seem to find a way they're so far apart

It's not you, it's not your fault

You've got everything I could ever want

And you've always understood my intentions are good

and we've been so close from the start

but the furthest distance I've ever known is

Furthest distance I've ever known is

Furthest distance I've ever known is

Furthest distance I've ever known is

Furthest distance I've ever known is



simplify

key

chords

key

original:   current:  

transpose  


G5

D5

Bm

A

G

Gm

D

F#

E

None

expert

 

New Free App: Soji lets you instantly record, enhance & share your songs. Download Now ยป