Learn Singing, Guitar, Piano, Bass, Percussion at www.NEATcourses.com
Get Chords at www.NEATchords.com

even as we speak
no one understands me
Chords and lyrics

difficulty: expert



                Chords

B5  G#5 F#5 G5  C#5 E  D5

|-x---x—--x---x---x---X--X-|

|-x---x—--x---x---x---0--x-|

|-4---x—--6---x---6---1--7-|

|-4---6—--6---5---6---2--7-|

|-2---6—--4---5—--4---2--5-|

|-x---4—--x---3---x---0--x-|

Intro (riff also played during the verses)

    B5         G#5            F#5         G5

e-|-------------------------|------------------------|-

B-|-------------------------|------------------------|-

G-|-------4-----------------|-------6----------------|-

D-|----------4--------6-----|----6-----6--------5----|-

A-|-2--------------6-----6--|-4--------------5-----5-|-

E-|------------/4-----------|-------------3----------|-

    B5         G#5            F#5         G5

e-|-------------------------|------------------------|-

B-|-------------------------|------------------------|-

G-|-------4-----------------|-------6----------------|-

D-|----4-----4--------6-----|----6-----6--------5----|-

A-|-2--------------6-----6--|-4--------------5-----5-|-

E-|------------/4-----------|-------------3----------|-

Verse 1

B5           G#5

No one understands me

      C#5              G5

But i guess they never do

        B5               G#5       

All the things that i am into

       C#5           G5

You've yet to get in to

      B5                G#5       

Don't tell me that it's orange

       C#5             G5

When i know that it is blue

Link

C#

Chorus

    E     B          C# 

The empty bottle has gone

    E    B        C# 

And everybody has gone

   E      B            C# 

To lay in bed on their own

E  B

Verse 2

B5          G#5       

Do you ever wake up

              C#5            G5

And don't not know where you are

       B5            G#5       

You've got the right motor

         C#5          G5

But it's in the wrong car

    B5           C#5       

You wanna go the distance

         C#5      G5

But it's just too far

Link

C#

Chorus

    E     B          C# 

The empty bottle has gone

    E    B        C# 

And everybody has gone

   E      B            C# 

To lay in bed on their own

E   B

      D5      C#5          E   

Cause no one understands me

Solo (played over the intro/verse progression)

          C#5       

Well it's coming tonight

         E  

And it's coming tonight

D5  C#5  E

Bridge

B5          G #5       C#5  G5  

No one understands me

B5          G#5       C#5  G5  

No one understands me

      B5             G#5      C#5  G5  

I take what everyone hands me

Link

C#

Chorus

    E     B          C# 

The empty bottle has gone

    E    B        C# 

And everybody has gone

   E      B            C# 

To lay in bed on their own

E  B

Outro

E   B        C# 

    My my my moan

E   B        C# 

    My my my moan

E   B        C# 

    Lo lo lo low

E   B        C# 

             Ya ya ya ya

E   B

B5     G5          B5

No one understands me



simplify

key

chords

key

original:   current:  

transpose  


B5

G#5

F#5

G5

C#5

E

D5

C#

B

None

expert

 

Learn the NEW Way to Sing With Freedom, Confidence, and Control

click to watch now