Learn Singing, Guitar, Piano, Bass, Percussion at www.NEATcourses.com
Get Chords at www.NEATchords.com

extreme
hole hearted
Chords and lyrics

difficulty: expert



                Intro:

e|-2-2--4-/---/-2-2--4-/--4----/-2-2--4-(4)-/---/-2--4--5-(5)-/

B|-3-3--5-/---/-3-3--5-/----5--/-3-3--5-(5)-/---/-3--5--6-(6)-/

G|-2-2--4-/---/-2-2--4-/------4/-2-2--4-(4)-/---/-2--4--5—(5)-/

D|-0-0--0-/---/-0-0--0-/-------/-0-0--0-(0)-/---/-0--0--0-(0)-/

A|--------/---/--------/-------/------------/---/-------------/

E|--------/---/--------/-------/------------/---/-------------/

                                                          Ooh yeah

Verse:

e|------------------------------/-------------------------------/

B|------------------------------/--5------7---5------7---5------/

G|-0h2-2-2--2-2-(2)-0--------2-2/--5h6----7---5h6----7---5h6---0/

D|--------------------2------2-2/------7----------7----------7--/

A|----------------------3-0-----/-------------------------------/

E|------------------------------/-------------------------------/

1.                           Woow

2. Yeahyeahyeahhee yeahh

3. Life´s ambition occupy my time                            Pry -

4. Happiness one step behind                                 This

e|-----------------------------/-------------------------------/

B|--------------------------3-3/----------------------------2-0/

G|-0h2-2-2--2-2-(2)-0-------2-2/-----0----------------------2-0/

D|--------------------2---0----/-0h2-------0----------------2-0/

A|----------------------3------/-------3h5----2h3-2h3p2p0------/

E|-----------------------------/--------------------------3----/

1.                                                       Yeayaehee

2.                                                               

3. orities confuse the mind

e|-----------------------------/-----------------------------/

B|--------------------------3-3/----------------------------0/

G|-0h2-2-2--2-2-(2)-0-------2-2/-----0----------------------0/

D|--------------------2---0----/-0h2-------0----------------0/

A|----------------------3------/-------3h5----2h3-2h3p2p0----/

E|-----------------------------/--------------------------3--/

4. inner peace I´ve yet to find

Pre-chorus:

D         A/D         

  Rivers      flow 

      G/D      A/Di       D                                      

In -       to        the     sea

     A7                                                

Yet     even the 

Em9/A               Em/A            A7                             

      Sea is not so        full of     me

     D          A/D                                        

If     I'm not      blind 

    G/D        A/Di    D                                        

Why      can't       I    see

        A7              Em9/A                                

That a     circle can't        fit 

         Em/A                A7*                              

Where a       square should       be

Chorus:

           G                                          

There's a     hole in my heart

a        b       C                                         

   That     can    only be filled 

    D       E/D - D - E/D                                           

By     you 

          G                                           

And this     hole in my heart

a         b      C7                                          

   Can't     be      filled with the things 

   D      E/D                                              

I     do      (hole - )

e|---------------------------/

B|------3-------------3------/

G|----0----0---0----0--------/

D|-3---------3----2-----2p0--/

A|--------------------------3/

E|---------------------------/

Hole hearted                        [D - E/D]

e|---------------------------/

B|------3-------------3------/

G|----0----0---0----0--------/

D|-3---------3----2-----2p0--/

A|--------------------------3/

E|---------------------------/

Hole hearte - eeeeeeeeeeeeeeeeeed

Inter:

e|------------------------------/-------------------------------/

B|------------------------------/--5------7---5------7---5------/

G|-0h2-2-2--2-2-(2)-0--------2-2/--5h6----7---5h6----7---5h6---0/

D|--------------------2------2-2/------7----------7----------7--/

A|----------------------3-0-----/-------------------------------/

E|------------------------------/-------------------------------/

e|-----------------------------/-------------------------------/

B|--------------------------3-3/----------------------------2-0/

G|-0h2-2-2--2-2-(2)-0-------2-2/-----0----------------------2-0/

D|--------------------2---0----/-0h2-------0----------------2-0/

A|----------------------3------/-------3h5----2h3-2h3p2p0------/

E|-----------------------------/--------------------------3----/

Verse:

e|------------------------------/-------------------------------/

B|------------------------------/--5------7---5------7---5------/

G|-0h2-2-2--2-2-(2)-0--------2-2/--5h6----7---5h6----7---5h6---0/

D|--------------------2------2-2/------7----------7----------7--/

A|----------------------3-0-----/-------------------------------/

E|------------------------------/-------------------------------/

1. This heart of stone is where I hide

2. Day by day less satisfied

e|-----------------------------/-------------------------------/

B|--------------------------3-3/----------------------------2-0/

G|-0h2-2-2--2-2-(2)-0-------2-2/-----0----------------------2-0/

D|--------------------2---0----/-0h2-------0----------------2-0/

A|----------------------3------/-------3h5----2h3-2h3p2p0------/

E|-----------------------------/--------------------------3----/

1. These feet of clay kep warm inside

e|-----------------------------/-----------------------------/

B|--------------------------3-3/----------------------------0/

G|-0h2-2-2--2-2-(2)-0-------2-2/-----0----------------------0/

D|--------------------2---0----/-0h2-------0----------------0/

A|----------------------3------/-------3h5----2h3-2h3p2p0----/

E|-----------------------------/--------------------------3--/

2. Not fade away before I die

Pre-chorus:

D          A/D                                            

   Rivers      flow 

      G/D      A/Di       D                                      

In -       to        the    sea

     A7                                                

Yet      even the 

Em9/A               Em/A           A7                              

      Sea is not so       full of      me

    D           Em6/D                                        

If     I'm not         blind 

     G/D         A/D i    D                                      

Why       can't        I     see

        A7                Em9/A                               

That a      circle can't         fit 

         Em/A                 Emadd4/A                            

Where a        square should             be

Chorus:

           G                                          

There's a    hole in my heart

a        b       C                                         

   That     can     only be filled 

    D       E/D - D - E/D                                           

By     you 

          G                                           

And this     hole in my heart

a         b      C7                                         

   Can't     be      filled with the things 

    D      A/D - G/D -                                             

I     do 

D             G                                         

   There's a     hole in my heart 

a        b       C                                         

   That     can     only be filled 

    D       E/D - D - E/D                                           

By     you 

             G                                        

Should have     known from the start

a       b       C7                                         

   I'd     fall     short with the things 

   D      E/D                                              

I     do      (hole - )

e|---------------------------/

B|------3-------------3------/

G|----0----0---0----0--------/

D|-3---------3----2-----2p0--/

A|--------------------------3/

E|---------------------------/

1. Hole hearted               hole -[D - E/D] hearted

2. Hole hearted               hole -[D - E/D] hearted

3. Hole hearted               hole -[D - E/D] hearted

e|-----------------------------2//

B|------3-------------3--------3//

G|----0----0---0----0----------2//

D|-3---------3----2-----2p0----0//

A|--------------------------3---//

E|------------------------------//

Yea - eaeaeaeaeaeaeaeaeaeaaeeah//



simplify

key

chords

key

original:   current:  

transpose  


D

A/D

A7

Em9/A

Em/A

G

E/D

Em6/D

None

expert

 

Learn the NEW Way to Sing With Freedom, Confidence, and Control

click to watch now