Learn Singing, Guitar, Piano, Bass, Percussion at www.NEATcourses.com
Get Chords at www.NEATchords.com

finley
adrenalina
Chords and lyrics

difficulty: expert



                FINLEY 

Intro

A / E / F# / D    X 7 

A / B / D

A                    F#

Cerco un'alternativa che

   E

dia una scossa alla mia normalità

A               B

L'abitudine mi soffoca

D

non ce la faccio più......

INTRO X 2

A               F#

Mai nessuno capirà

        E

questa è una emergenza

A                 B

Ho bisogno di una scarica

   D     E

da 9000 watt.....

A  F#    E

E va,wooooooooooo......

                             A  F# E 

La mia testa se ne và........wooooooooooo

       A

Io non riesco a capire....

quello che mi succede....

         D

sento il cuore che batte,

sento il cuore che batte......

       F#

Soffro di dipendenza

       E

da una strana sostanza....

       D

io non posso star senza...

la mia dose di adrenalina

VERSE 2

e|-----------------|

B|---10--9p10------|

G|-----------------|         p = pull off

D|-----------------|

A|-----------------|

E|-----------------|

Prima o poi so' che impazzirò

perchè ne voglio sempre,sempre di più

Sono fatto per

B                 D             E

rischiare per non accontentarmi mai.......

  A F#    E

E va, wooooooooooo......

                      A F#       E

La mia testa se ne và........woooooooooo

                     A     B    D

La mia testa se ne vàààààààààà

       A

Io non riesco a capire....

quello che mi succede....

         D

sento il cuore che batte,

sento il cuore che batte......

       F#

Soffro di dipendenza

       E

da una strana sostanza....

       D

io non posso star senza...

la mia dose di adrenalina

BRIDGE

e|-------------------------------------------------------|

B|-------------------------------------------------------|

G|---14-x-x-14-x-x-14-x-x-14-x-x-14-x-x-14-x-x-7-x-x-7---|

D|---x--x-x-x--x-x-x--x-x-x--x-x-x--x-x-x--x-x-x-x-x-x---|

A|---12-x-x-12-x-x-12-x-x-12-x-x-12-x-x-12-x-x-9-x-x-9---|

E|-------------------------------------------------------|

e|-------------------------------------------------------|

B|-------------------------------------------------------|

G|---14-x-x-14-x-x-14-x-x-14-x-x-14-x-x-14-x-x-7---------|

D|---x--x-x-x--x-x-x--x-x-x--x-x-x--x-x-x--x-x-x---------|

A|---12-x-x-12-x-x-12-x-x-12-x-x-12-x-x-12-x-x-9---------|

E|-------------------------------------------------------|

one,two,three,four.....

INTRO

A / E / F# / D   

A / B / D      / E    

       A

Io non riesco a capire....

quello che mi succede....

         D

sento il cuore che batte,

sento il cuore che batte......

       F#

Soffro di dipendenza

       E

da una strana sostanza....

       D

io non posso star senza...

                         A

la mia dose di adrenalina

Ascoltare bene la canzone per chiarire meglio.



simplify

key

chords

key

original:   current:  

transpose  


A

F#

E

B

D

None

expert