Learn Singing, Guitar, Piano, Bass, Percussion at www.NEATcourses.com
Get Chords at www.NEATchords.com

flamingos
i only have eyes for you bass
Chords and lyrics

difficulty: expert



Verse 1: "My love must be a kind of blind love..."

G|---------------------|

D|---------------------|

A|-3----1-----5-3----1-|

E|---------3-----------|

            x6

Bridge: "I only have eyes for you dear..."

G|------------------------2--5--2--2--2--2-----1--1--1-------|

D|---------------0--3--3-------------------0-----------------|

A|-0--------0-3------------------------------3-----------0-1-|

E|---3-1-----------------------------------------------3-----|

Verse 2: "The moon may be high..."

G|---------------------|

D|---------------------|

A|-3----1-----5-3----1-|

E|---------3-----------|

            x2

Bridge: "I only have eyes for you..."                  

G|--------------------------------------2--------------|

D|---------------0--3--3--0-----0--0-4-----0-0---------|

A|-0--------0-3--------------3-----------------3-3-2-0-|

E|---3-1-----------------------------------------------|

 "I don't know if..."                                       

G|-----------------------------------------------------------|

D|-0----0--------------0-5-3--5----0---5-3----5-3------------|

A|---------0-1-3----3-----------3----3------------5------0-1-|

E|---------------------------------------------------1-3-----|

"Or on a crowded..."

G|----------------------------------------------|

D|----------------------------------------------|

A|-1----1----1----------------------------------|

E|----------------1----1----3-3-0----0----0-0-0-|

Verse 3: "You are here..."

G|---------------------|

D|---------------------|

A|-3----1-----5-3----1-|

E|---------3-----------|

            x2

Bridge: "But they all disappear from view..."              "And I only have eyes..."

G|-----------------------------------------2--------------|---------------|

D|---------------0--3----3----3-2-0-----4-----0-0---------|-5-5-5-5-5-5---|

A|-0--------0-3-----------------------3-----------3-3-2-0-|-------------3-|

E|---3-1--------------------------------------------------|---------------|

"For"

Conclusion: "You..."

G|---------------------|

D|---------------------|

A|-3----1-----5-3----1-|

E|---------3-----------|



simplify

key

chords

key

original:   current:  

transpose  


0

expert

 

New Free App: Soji lets you instantly record, enhance & share your songs. Download Now ยป