Learn Singing, Guitar, Piano, Bass, Percussion at www.NEATcourses.com
Get Chords at www.NEATchords.com

frankie avalon
venus bass
Chords and lyrics

difficulty: expert



                Tuning: BEADG

Played on a Dano bass but this works too.

G|----------------------------------------------------------------|

D|----------------3-------------------------------3---------------| x2

A|1-------------------------------1-------------------------------|

E|------------------------1-------------------------------1-------|

B|----------------------------------------------------------------|

G|----------------------------------------------------------------|

D|----------------3-------------------------------3---------------|

A|1-------------------------------1-----------------------1-------|

E|------------------------1---------------------------------------|

B|----------------------------------------------------------------|

G|----------------------------------------------------------------|

D|--------------------------------3---------------3---------------|

A|----------------1-------------------3-------3-------3-------3---|

E|--------------------------------------------------------1-------|

B|4-----------------------4---------------------------------------|

0:17

G|----------------------------------------------------------------|

D|----------------3-------3-------------------3-------3-----------| x2

A|1-------------------------------3-------------------------------|

E|----------------------------------------------------------------|

B|----------------------------------------------------------------|

G|----------------------------------------------------------------|

D|----------------7-------------------------------3---------------|

A|5-----------------------5-------3-----------------------3-------|

E|----------------------------------------------------------------|

B|----------------------------------------------------------------|

G|----------------------------------------------------------------|

D|----------------3-------3-----------------------3-------3-------|

A|1-------------------------------1-------------------------------|

E|----------------------------------------------------------------|

B|----------------------------------------------------------------|

0:33

G|----------------------------------------------------------------|

D|----------------3-------3-------------------3-------3-----------| x2

A|1-------------------------------3-------------------------------|

E|----------------------------------------------------------------|

B|----------------------------------------------------------------|

G|----------------------------------------------------------------|

D|----------------7-----------------------------------------------|

A|5-----------------------5-------3-----------------------3-------|

E|------------------------------------------------1---------------|

B|----------------------------------------------------------------|

G|----------------------------------------------------------------|

D|----------------3-------------------------------3---------------|

A|1-------------------------------1-----------------------1-------|

E|------------------------1---------------------------------------|

B|----------------------------------------------------------------|

0:50

G|----------------------------------------------------------------|

D|----------------------------------------------------------------|

A|------------------------1-------------------------------0-------|

E|----------------3-------------------------------1---------------|

B|4-------------------------------4-------------------------------|

G|----------------------------------------------------------------|

D|----------------------------------------------------------------|

A|1---------------------------------------------------------------|

E|------------------------1-------3-----------------------3-------|

B|----------------3-------------------------------3---------------|

G|----------------------------------------------------------------|

D|----------------------------------------------------------------|

A|----------------------------------------------------------------|

E|5-----------------------0-------3-----------------------3-------|

B|----------------1-------------------------------3---------------|

G|----------------------------------------------------------------|

D|------------------------------------------------3---------------|

A|----------------------------------------------------3-------3---|

E|----------------1---------------1-----------------------1-------|

B|1---1-------1-----------1-----------1-------1-------------------|

1:07

G|----------------------------------------------------------------|

D|----------------3-------3-------------------3-------3-----------| x2

A|1-------------------------------3-------------------------------|

E|----------------------------------------------------------------|

B|----------------------------------------------------------------|

G|----------------------------------------------------------------|

D|----------------7-------------------------------3---------------|

A|5-----------------------5-------3-----------------------3-------|

E|----------------------------------------------------------------|

B|----------------------------------------------------------------|

G|----------------------------------------------------------------|

D|----------------3-------------------------------3---------------|

A|1-------------------------------1-----------------------1-------|

E|------------------------1---------------------------------------|

B|----------------------------------------------------------------|

1:23

G|----------------------------------------------------------------|

D|----------------------------------------------------------------|

A|------------------------1-------------------------------0-------|

E|----------------3-------------------------------1---------------|

B|4-------------------------------4-------------------------------|

G|----------------------------------------------------------------|

D|----------------------------------------------------------------|

A|1---------------------------------------------------------------|

E|------------------------1-------3-----------------------3-------|

B|----------------3-------------------------------3---------------|

G|----------------------------------------------------------------|

D|----------------------------------------------------------------|

A|----------------------------------------------------------------|

E|5-----------------------0-------3-----------------------3-------|

B|----------------1-------------------------------3---------------|

G|----------------------------------------------------------------|

D|------------------------------------------------3---------------|

A|----------------------------------------------------3-------3---|

E|----------------1---------------1-----------------------1-------|

B|1---1-------1-----------1-----------1-------1-------------------|

1:42

G|----------------------------------------------------------------|

D|----------------3-------3-------------------3-------3-----------| x2

A|1-------------------------------3-------------------------------|

E|----------------------------------------------------------------|

B|----------------------------------------------------------------|

G|----------------------------------------------------------------|

D|----------------7-------------------------------3---------------|

A|5-----------------------5-------3-----------------------3-------|

E|----------------------------------------------------------------|

B|----------------------------------------------------------------|

G|----------------------------------------------------------------|

D|----------------3-------3-----------------------3-------3-------|

A|1-------------------------------1-------------------------------|

E|----------------------------------------------------------------|

B|----------------------------------------------------------------|

1:58

G|----------------------------------------------------------------|

D|----------------3-------3-----------------------3---------------|

A|1-------------------------------1-----------------------1-------|

E|----------------------------------------------------------------|

B|----------------------------------------------------------------|

G|----------------------------------------------------------------|

D|--------------------------------3---------------3-------3-------|

A|----------------1-------------------3-------3-------------------|

E|----------------------------------------------------------------|

B|4-----------------------4---------------------------------------|

G|----------------------------------------------------------------|

D|3---------------3-------------------------------3---------------|

A|--------------------------------1-------------------------------|

E|--------------------------------------------------------1-------|

B|----------------------------------------------------------------|

G|----------------------------------------------------------------|

D|----------------3-------3-----------------------3---------------|

A|1-------------------------------1-------------------------------|

E|--------------------------------------------------------1-------|

B|----------------------------------------------------------------|

G|----------------------------------------------------------------|

D|----------------3-------3---------------------------------------|

A|1-------------------------------1-------------------------------|

E|----------------------------------------------------------------|



simplify

key

chords

key

original:   current:  

transpose  


0

expert

 

New Free App: Soji lets you instantly record, enhance & share your songs. Download Now ยป