Learn Singing, Guitar, Piano, Bass, Percussion at www.NEATcourses.com
Get Chords at www.NEATchords.com

grace jones
ive seen that face before libertango bass
Chords and lyrics

difficulty: expert



                [Intro 0:00]

G|-17-------------|-14-------------|-14-------------|----------------|

D|-19-------------|-14-------------|-14-------------|-14-------------|

A|----------------|----------------|----------------|-12-------------|

E|----------------|----------------|----------------|----------------|

G|-10-------------|------14--------|----------------|----------------|

D|-12-------------|-12---14--------|-14-------------|----------------|

A|----------------|-12-------------|-12-------------|----------------|

E|----------------|-------------12-|----------------|-5--------------|

G|-17-------------|-14-------------|-14-------------|----------------|

D|-19-------------|-14-------------|-14-------------|-14-------------|

A|----------------|----------------|----------------|-12-------------|

E|----------------|----------------|----------------|----------------|

G|-10-------------|------14--------|----------------|----------------|

D|-12-------------|-12---14--------|-14-------------|----------------|

A|----------------|-12-------------|-12-------------|----------------|

E|----------------|-------------12-|----------------|-5--------------|

[Instrumental 1  0:29]

  Am               B7               Dm               Am

G|----------------|----------------|----------------|----------------|

D|--------5-7-5-7-|----------------|--------5-7-5-7-|----------------|

A|------7---------|----------------|------7---------|----------------|

E|-5--------------|-5------0--3--3-|-5--------------|-5-5----0-3-3-4-|

  Am               B7               Dm               Am

G|----------------|----------------|----------------|----------------|

D|--------5-7-5-7-|----------------|--------5-7-5-7-|----------------|

A|------7---------|----------------|------7---------|----------------|

E|-5--------------|-5------0--3--3-|-5--------------|-5-5----0-3-3-4-|

  Am               B7               Dm               Am

G|----------------|----------------|----------------|----------------|

D|--------5-7-5-7-|----------------|--------5-7-5-7-|----------------|

A|------7---------|----------------|------7---------|----------------|

E|-5--------------|-5------0--3--3-|-5--------------|-5-5----0-3-3-4-|

  Am               B7               Dm               Am

G|----------------|----------------|----------------|----------------|

D|--------5-7-5-7-|----------------|--------5-7-5-7-|----------------|

A|------7---------|----------------|------7---------|----------------|

E|-5--------------|-5------0--3--3-|-5--------------|-5-5----0-3-3-4-|

[Verse 1  0:58]

  Am               B7               Dm               Am

G|----------------|----------------|----------------|----------------|

D|--------5-7-5-7-|----------------|--------5-7-5-7-|----------------|

A|------7---------|----------------|------7---------|----------------|

E|-5--------------|-5------0--3--3-|-5--------------|-5-5----0-3-3-4-|

  Am               B7               Dm               Am

G|----------------|----------------|----------------|----------------|

D|--------5-7-5-7-|----------------|--------5-7-5-7-|----------------|

A|------7---------|----------------|------7---------|----------------|

E|-5--------------|-5------0--3--3-|-5--------------|-5-5----0-3-3-4-|

[Pre-Chorus 1  1:12]

  G                                 F#

G|----------------|----------------|----------------|----------------|

D|----------5-5---|----------------|----------4-4---|----------------|

A|--------5-----5-|----------------|--------4-----4-|----------------|

E|-3--------------|-3--------------|-2--------------|-2--------------|

  F                                 E7

G|----------------|----------------|----------------|----------------|

D|----------3-3---|----------------|----------------|----------------|

A|--------3-----3-|----------------|-6--7-7--6--7-7-|-6--7-7----7----|

E|-1--------------|-1--------------|----------------|----------------|

[Verse 2  1:26]

  Am               B7               Dm               Am

G|----------------|----------------|----------------|----------------|

D|--------5-7-5-7-|----------------|--------5-7-5-7-|----------------|

A|------7---------|----------------|------7---------|----------------|

E|-5--------------|-5------0--3--3-|-5--------------|-5-5----0-3-3-4-|

  Am               B7               Dm               Am

G|----------------|----------------|----------------|----------------|

D|--------5-7-5-7-|----------------|--------5-7-5-7-|----------------|

A|------7---------|----------------|------7---------|----------------|

E|-5--------------|-5------0--3--3-|-5--------------|-5-5----0-3-3-4-|

[Pre-Chorus 2  1:40]

  G                                 F#

G|----------------|----------------|----------------|----------------|

D|----------5-5---|----------------|----------4-4---|----------------|

A|--------5-----5-|----------------|--------4-----4-|----------------|

E|-3--------------|-3--------------|-2--------------|-2--------------|

  F                                 E7

G|----------------|----------------|----------------|----------------|

D|----------3-3---|----------------|----------------|----------------|

A|--------3-----3-|----------------|-6--7-7--6--7-7-|-6--7-7----7----|

E|-1--------------|-1--------------|----------------|----------------|

[Bridge 1 1:55]

  Asus4            A7               Dm               G7

G|----------------|----------------|----------------|----------------|

D|----------------|----------------|-4-4-----4-4----|----------------|

A|-----8-8-----8-8|----------------|-----4-4-----4-4|-5-5-5----------|

E|-6-6-----6-6----|-5-5-5----------|----------------|----------------|

  Cmaj7            Bm7              E7

G|----------------|----------------|----------------|----------------|

D|----------------|----------------|----------------|----------------|

A|-----6-6-----6-6|----------------|-2-2-----2-2----|--------7-------|

E|-4-4-----4-4----|-3-3-3----------|-----0-0-----0-0|--2/7-7---------|

[Instrumental 2  2:10]

G|----------------|----------------|----------------|----------------|

D|--------5-7-5-7-|----------------|--------5-7-5-7-|----------------|

A|------7---------|----------------|------7---------|----------------|

E|-5--------------|-5------0--3--3-|-5--------------|-5-5----0-3-3-4-|

  Am               B7               Dm               Am

G|----------------|----------------|----------------|----------------|

D|--------5-7-5-7-|----------------|--------5-7-5-7-|----------------|

A|------7---------|----------------|------7---------|----------------|

E|-5--------------|-5------0--3--3-|-5--------------|-5-5----0-3-3-4-|

[Verse 3  2:24]

  Am               B7               Dm               Am

G|----------------|----------------|----------------|----------------|

D|--------5-7-5-7-|----------------|--------5-7-5-7-|----------------|

A|------7---------|----------------|------7---------|----------------|

E|-5--------------|-5------0--3--3-|-5--------------|-5-5----0-3-3-4-|

  Am               B7               Dm               Am

G|----------------|----------------|----------------|----------------|

D|--------5-7-5-7-|----------------|--------5-7-5-7-|----------------|

A|------7---------|----------------|------7---------|----------------|

E|-5--------------|-5------0--3--3-|-5--------------|-5-5----0-3-3-4-|

[Pre-Chorus 3  2:38]

  G                                 F#

G|----------------|----------------|----------------|----------------|

D|----------5-5---|----------------|----------4-4---|----------------|

A|--------5-----5-|----------------|--------4-----4-|----------------|

E|-3--------------|-3--------------|-2--------------|-2--------------|

  F                                 E7

G|----------------|----------------|----------------|----------------|

D|----------3-3---|----------------|----------------|----------------|

A|--------3-----3-|----------------|-6--7-7--6--7-7-|-6--7-7----7----|

E|-1--------------|-1--------------|----------------|----------------|

[Instrumental 3  2:52]

  Am               B7               Dm               Am

G|----------------|----------------|----------------|----------------|

D|--------5-7-5-7-|----------------|--------5-7-5-7-|----------------|

A|------7---------|----------------|------7---------|----------------|

E|-5--------------|-5------0--3--3-|-5--------------|-5-5----0-3-3-4-|

  Am               B7               Dm               Am

G|----------------|----------------|----------------|----------------|

D|--------5-7-5-7-|----------------|--------5-7-5-7-|----------------|

A|------7---------|----------------|------7---------|----------------|

E|-5--------------|-5------0--3--3-|-5--------------|-5-5----0-3-3-4-|

  G                                 F#

G|----------------|----------------|----------------|----------------|

D|----------5-5---|----------------|----------4-4---|----------------|

A|--------5-----5-|----------------|--------4-----4-|----------------|

E|-3--------------|-3--------------|-2--------------|-2--------------|

  F                                 E7

G|----------------|----------------|----------------|----------------|

D|----------3-3---|----------------|----------------|----------------|

A|--------3-----3-|----------------|-6--7-7--6--7-7-|-6--7-7----7----|

E|-1--------------|-1--------------|----------------|----------------|

[Bridge 2 3:22]

  Asus4            A7               Dm               G7

G|----------------|----------------|----------------|----------------|

D|----------------|----------------|-4-4-----4-4----|----------------|

A|-----8-8-----8-8|----------------|-----4-4-----4-4|-5-5-5----------|

E|-6-6-----6-6----|-5-5-5----------|----------------|----------------|

  Cmaj7            Bm7              E7

G|----------------|----------------|----------------|----------------|

D|----------------|----------------|----------------|----------------|

A|-----6-6-----6-6|----------------|-2-2-----2-2----|--------7-------|

E|-4-4-----4-4----|-3-3-3----------|-----0-0-----0-0|--2/7-7---------|

[Outro 3:37]

  Am               B7               Dm               Am

G|----------------|----------------|----------------|----------------|

D|--------5-7-5-7-|----------------|--------5-7-5-7-|----------------|

A|------7---------|----------------|------7---------|----------------|

E|-5--------------|-5------0--3--3-|-5--------------|-5-5----0-3-3-4-|

  Am               B7               Dm               Am

G|----------------|----------------|----------------|----------------|

D|--------5-7-5-7-|----------------|--------5-7-5-7-|----------------|

A|------7---------|----------------|------7---------|----------------|

E|-5--------------|-5------0--3--3-|-5--------------|-5-5----0-3-3-4-|

  Am               B7               Dm               Am

G|----------------|----------------|----------------|----------------|

D|--------5-7-5-7-|----------------|--------5-7-5-7-|----------------|

A|------7---------|----------------|------7---------|----------------|

E|-5--------------|-5------0--3--3-|-5--------------|-5-5----0-3-3-4-|

  Am               B7               Dm               Am

G|----------------|----------------|----------------|----------------|

D|--------5-7-5-7-|----------------|--------5-7-5-7-|----------------|

A|------7---------|----------------|------7---------|----------------|

E|-5--------------|-5------0--3--3-|-5--------------|-5-5----0-3-3-4-|

  Am               B7               Dm               Am

G|----------------|----------------|----------------|----------------|

D|--------5-7-5-7-|----------------|--------5-7-5-7-|----------------|

A|------7---------|----------------|------7---------|----------------|

E|-5--------------|-5------0--3--3-|-5--------------|-5-5----0-3-3-4-|

  Am               B7               Dm               Am

G|----------------|----------------|----------------|----------------|

D|--------5-7-5-7-|----------------|--------5-7-5-7-|----------------|

A|------7---------|----------------|------7---------|----------------|

E|-5--------------|-5------0--3--3-|-5--------------|-5-5----0-3-3-4-|

  Am               B7               Dm               Am

G|----------------|----------------|----------------|----------------|

D|--------5-7-5-7-|----------------|--------5-7-5-7-|----------------|

A|------7---------|----------------|------7---------|----------------|

E|-5--------------|-5------0--3--3-|-5--------------|-5-5----0-3-3-4-|



simplify

key

chords

key

original:   current:  

transpose  


Am

B7

Dm

G

F#

F

E7

Asus4

A7

G7

Cmaj7

Bm7

None

expert

 

New Free App: Soji lets you instantly record, enhance & share your songs. Download Now ยป