Learn Singing, Guitar, Piano, Bass, Percussion at www.NEATcourses.com
Get Chords at www.NEATchords.com

grinspoon
no reason
Chords and lyrics

difficulty: expert



                Tuning: Standard (eadgbe)

Key:

*: palm mute

h: hammer

Intro/Verse:

-6-6---------------------------------------------------------------

-6-6--6-6--7-7--4-4-4----------------------------------------------

-4-4--6-6--7-7--4-4-4----------------------------------------------

------4-4--5-5--2-0-2----------------------------------------------

Chorus:

-----0------4---------5-5------------------------------------------

-----0------4---------5--5-----------------------------------------

-----1------5--4h6-6--6--------------------------------------------

-2-2-2--6-6-6--4h6-6--7--------------------------------------------

-2-2-2--6-6-6--4---4--7--------------------------------------------

-0-0-0--4-4-4---------5--------------------------------------------

 * *    * *

That's just the 2 main bits that pat plays.

Play them with lots of distortion.



simplify

key

chords

key

original:   current:  

transpose  


0

expert

 

Learn the NEW Way to Sing With Freedom, Confidence, and Control

click to watch now