Learn Singing, Guitar, Piano, Bass, Percussion at www.NEATcourses.com
Get Chords at www.NEATchords.com

hannah trigwell
believe
Chords and lyrics

difficulty: intermediate



                

      D*             A            Em           

E---|-------------|-------------|--0----------|

B---|--3----------|--2----------|------0------|

D---|------2------|------2------|----0--------|

G---|----4--------|----2--------|-------------|

A---|--0----------|--0----------|--2----------|

E---|-------------|-------------|-------------|

      D*             A            A*                         

E---|-------------|-------------|-------------|

B---|--3----------|--2----------|--2----------|

D---|------2------|------2------|------2------|

G---|----4--------|----2--------|----4--------|

A---|--0----------|--0----------|--0----------|

E---|-------------|-------------|-------------|

     No matter how hard I try

       A*  

E---|-------------|

B---|--2----------|

D---|----2--------|

G---|------4------|

A---|--0----------|

E---|-------------|

You keep pushing me aside

       G             G

E---|--3----------|--3----------|

B---|------0------|-----0-------|

D---|----0--------|-------0-----|

G---|-------------|-------------|

A---|-------------|-------------|

E---|--3----------|--3----------|

And I can't break through

       A  

E---|-------------|

B---|--2----------|

D---|----2--------|

G---|------2------|

A---|--0----------|

E---|-------------|

There's no talking to you

      D*             D*                                   

E---|-------------|-------------|

B---|-----3-3-----|-----3-3-----|

D---|-----2-2-----|-----2-2-----|

G---|-----4-4-----|-----4-4-----|

A---|--0----------|--0----------|

E---|-------------|-------------|

It's so sad that you're leaving

      A*              A*           

E---|-------------|-------------|

B---|-----2-2-----|-----2-2-----|

D---|-----2-2-----|-----2-2-----|

G---|-----4-4-----|-----4-4-----|

A---|--0----------|--0----------|

E---|-------------|-------------|

It takes time to believe it

       G             G

E---|-----3-3-----|-----3-3-----|

B---|-----0-0-----|-----0-0-----|

D---|-----0-0-----|-----0-0-----|

G---|-------------|-------------|

A---|-------------|-------------|

E---|--3----------|--3----------|

But after all is said and done

       A

E---|--0----------|

B---|--2----------|

D---|--2----------|

G---|--2----------|

A---|--0----------|

E---|-------------|

           You're gonna be the lonely one

D          A                Em       G

Do you believe in life after love

       D                 A

I can feel something inside me say

  Em                         G

I really don't think you're strong enough

Verse:

D                               A

What am I supposed to do

Sit around and wait for you

       G

Well I can't do that

            A

And there's no turning back

       D

I need time to move on

       A*

I need love to feel strong

G                                        A

See I've had time to think it through

                                     

And maybe I'm too good for you Ohhh

Chorus:

D         A                   Em       G

Do you believe in life after love

        D               A

I can feel something inside me say

   Em                        G               D

I really don't think you're strong enough

          A                   Em       G

Do you believe in life after love

        D               A

I can feel something inside me say

   Em                        G               Bm

I really don't think you're strong enough

Bridge:

       Bm            A           A           Bm

Well I know I'll get through this, yeah yeah

      Bm        A

And I know I am strong

          G         

I don't need you anymore

          A

I don't need you anymore

            G

No I don't need you anymore

          A                   D

I don't need you anymore Ohhh

Chorus:

         A                   Em       G

Do you believe in life after love

        D               A

I can feel something inside me say

   Em                        G               

I really don't think you're strong enough

      D*             A            Em             G

E---|-------------|-------------|--0----------|--3----------|

B---|--3----------|--2----------|------0------|------0------|

D---|------2------|------2------|----0--------|----0--------|

G---|----4--------|----2--------|-------------|-------------|

A---|--0----------|--0----------|--2----------|-------------|

E---|-------------|-------------|-------------|--3----------|

          Do you believe in life after love

      D*             A            Em             G

E---|-------------|-------------|--0----------|-------------|

B---|--3----------|--2----------|----0--------|--0----------|

D---|----2--------|----2--------|------0------|--0----------|

G---|------4------|------2------|-------------|--0----------|

A---|--0----------|--0----------|--2----------|--2----------|

E---|-------------|-------------|-------------|-------------|



simplify

key

chords

key

original:   current:  

transpose  


G

A

D

Em

Bm

1

2

4

5

6

2

intermediate

 

Learn the NEW Way to Sing With Freedom, Confidence, and Control

click to watch now