Learn Singing, Guitar, Piano, Bass, Percussion at www.NEATcourses.com
Get Chords at www.NEATchords.com

imbruglia natalie
butterflies
Chords and lyrics

difficulty: beginner



                #font.                                                                        #

"Butterflies" by Natalie Imbruglia

Added By Mikhailo

Intro:

| D (D4) D | G (G2) G | x2

Verse 1:

| F#m | G | D/A | G | x2

| F#m | G | Em | G | x2

Chorus:

| F#m | G | D | G | Em | G | D | G |

| F#m | G | D | G | Em | G |

   D                 G

e|-----------------|-----------------|

B|-----------------|-----------------|

G|-----------------|-----------------|

D|---0-4---0-4---0-|---0-4---0-4---0-|

A|-----------------|-----------------|

E|-----------------|-----------------|

(repeat twice)

Verse 2:

e|-----------------|

B|-----------------|

G|-----------0-----|

D|---0-4---0-----0-|

A|-----------------|

E|-----------------|

repeat 16 times with verse 1 chords

Repeat chorus with the riff all-through.

Verse 3: first half f verse 1 and second half of verse 2.

Repeat chorus with riff again.

Outro:

   D                 G                 

e|-----------------|-----------------|

B|-----------------|-----------------|

G|-----------------|-----------------|

D|---0-4---0-4---0-|---0-4---0-4---0-|

A|-----------------|-----------------|

E|-----------------|-----------------|

repeat until fade

Chords needed:

  D   D4  G   G2  F#m D/A Em  

e-2---3---3---3---2---2---0----

B-3---3---0---0---2---3---0----

G-2---2---0---2---2---2---0----

D-0---0---0---0---4---0---2----

A-x---x---2---2---4---0---2----

E-x---x---3---3---2---x---0----



simplify

key

chords

key

original:   current:  

transpose  


D

G

1

4

2

beginner

 

New Free App: Soji lets you instantly record, enhance & share your songs. Download Now ยป