Learn Singing, Guitar, Piano, Bass, Percussion at www.NEATcourses.com
Get Chords at www.NEATchords.com

newton john olivia
youre the one that i want bass
Chords and lyrics

difficulty: expert



                

Intro:

G:-------------------------------------------------------------

D:---------77------5-------------------------------------------

A:------77-----5-7---------------------------------------------

E:--55---------------------------------------------------------

-repeat 4 times-

Verse:

I've got chills, they're multiplying...

   A                      A

G:-------------------------------------------------------------

D:--------7--------5-----------7------5------------------------

A:------7------5-7-----------7----5-7--------------------------

E:----5-------------------5------------------------------------

and I'm losin' control...

   F                  C            E

G:------------------------------5------2-h-4-------------------

D:------3------1--3----------2/5---2--2------2--0--------------

A:----3---1--3--------3---3-3---------------------3-2----------

E:-1--------------------3--------------------------------------

   A                      A              A

G:-------------------------------------------------------------

D:--------7--------5-----------7------5-------7-------5--------

A:------7------5-7-----------7----5-7-------7----5-7-----------

E:----5-------------------5--------------5---------------------

Pre-chorus:

You better shape up...

  C                  E                 

G:------------------|-----------------|

D:------------9-7---|-------9--10-9---|

A:----7--10------10-|-7--10--------10-|

E:-/8---------------|-----------------|

  A                  F

G:------------------|----------7-9-----|------------------------

D:-----7--7-9-7-----|---7--10------10-9|------------------------

A:---7-----------10-|-8----------------|------------------------

E:/5----------------|------------------|------------------------

-repeat Pre-chorus twice, 2nd time play F 2x- (C E A F, C E A F F)

Chorus:

You're the one that I want...

   C                           C

G:-----------22---5----------------------2---------------------

D:----2---5------------------------2--3------------------------

A:-3---------------------------3------------------------------

E:-------------------------------------------------------------

-repeat-

   G

G:-------------------------------------------------------------

D:-5-5-5-5-5-5-5-----------------------------------------------

A:---------------5---------------------------------------------

E:------------------3-3-3-3-3-3-3-4----------------------------

-back to verse-



simplify

key

chords

key

original:   current:  

transpose  


A

F

C

E

G

None

expert

 

Learn the NEW Way to Sing With Freedom, Confidence, and Control

click to watch now