Learn Singing, Guitar, Piano, Bass, Percussion at www.NEATcourses.com
Get Chords at www.NEATchords.com

pearl jam
tremor christ
Chords and lyrics

difficulty: expert



--9h11~~~~--10-------9h11~~~~~~------9h11~~~~--10---------9h11~~~~~~~------

              bend and shake the note one full step up

--------------------------------------

--------------------------------------

--------------------------------------

--9h11~~~~~~-------9h11~~~^(12)-------   and on... (you get the idea)

-------------------------------------

--------------------------------------

Arpeggio

--------------------------------------------------

-------8-------8-----8-------7------7----7--------

-----8-------8-------------7------7---------------

---7-------7------7------6------6-----6-----------  and on...

--------------------------------------------------

--------------------------------------------------

At about 2:00, the guitars go back to the original intro chords, except this

time they leave out one of the notes to get something like this:

slightly palm mute...

--------------

--------------

--------------

--11---------- x 8 times

--------------

--------------

--------------

--------------

--------------

--10---------- x 8 times

--------------

--------------

Just finish the song out as needed with the above.  One note about the 'solo':

the solo is identical to the played arpeggio as noted above, but you will

want to slide up to the first note of the arpeggio and bend the last note

played.



simplify

key

chords

key

original:   current:  

transpose  


0

expert