Learn Singing, Guitar, Piano, Bass, Percussion at www.NEATcourses.com
Get Chords at www.NEATchords.com

uniform choice
no thanks bass
Chords and lyrics

difficulty: None



Verse:

G:-------------------------------------

D:-------5----------------33-----------

A:---555---5------3---333----888-777---

E:------------333---3------------------      First Part

G:-------------------------------------

D:-------5----------------33-----555---

A:---555---5------3---333----888-------

E:------------333---3------------------   Second Part

Chorus:

G:----------------

D:----------------

A:---5--5--5--5---

E:----------------

Bridge:

G:-----------------------------------------

D:-----------------------------------------

A:---55555555----------33333333-55555555---

E:------------33333333---------------------

End:

G:-------

D:-------

A:---5---

E:-------

The order is:

.Only the seconds part of the verse x1 (guitar plays the first)

.Verse x2

.Chorus x1

.Verse x2

.Chorus x1

.Bridge x4

.During the guitar solo, play the bridge 4 times

.Verse x2

.End x1



simplify

key

chords

key

original:   current:  

transpose  


None

None